"yes"; ?> Swayed by Planet Smashers - guitar chords, guitar tabs and lyrics - chordie
-------------------------------------------------------------------------------

-------------------------------------------------------------------------------

 FGC
|-1----3----3--------|
|-1----3----5--------|
|-2----4----5--------|
|-3----5----5--------|
|-3----5----3--------|
|-1----3----3--------|


Verse
 GCFGAm
|-3--------3----1----|-3--------5--------|
|-3--------5----1----|-3--------5--------|
|-4--------5----2----|-4--------5--------|
|-5--------5----3----|-5--------7--------|
|-5--------3----3----|-5--------7--------|
|-3--------3----1----|-3--------5--------|                      


(Verse 1 End)
G C F c F G
|-3--------3----1----|-3----1----3--------|
|-3--------5----1----|-5----1----3--------|
|-4--------5----2----|-5----2----4--------|
|-5--------5----3----|-5----3----5--------|
|-5--------3----3----|-3----3----5--------|
|-3--------3----1----|-3----1----3--------| 


(Verse 2 End)
G C F C F C F c F G
|-3--------3----1----|-3----1----3----1----|-3----1----3--------|
|-3--------5----1----|-5----1----5----1----|-5----1----3--------|
|-4--------5----2----|-5----2----5----2----|-5----2----4--------|
|-5--------5----3----|-5----3----5----3----|-5----3----5--------|
|-5--------3----3----|-3----3----3----3----|-3----3----5--------|
|-3--------3----1----|-3----1----3----1----|-3----1----3--------| 


Instrumental Part End (starts right before "I'm not gonna cave in")
 FCFCFC
|-1----3----1----3----1----3----|
|-1----5----1----5----1----5----|
|-2----5----2----5----2----5----|
|-3----5----3----5----3----5----|
|-3----3----3----3----3----3----|
|-1----3----1----3----1----3----|


Why do you think you get what you want with your wallet
Impossible to move I'm a rock (no-no-no)
If you want my attention,
you had better change your ways
start acting kind (no miss-behaving) and stop pushing around
I won't be swayed I won't be swayed
Gifts are nice and presents help
but your money can't buy my love
no-no-no ( no-no-no)
If you want my affection you had better change your ways
start acting kind (take things easy) send some time (give more freely)
then you'll find the chance increasing of me coming around
I won't be swayed I won't be swayed
I'm not gonna cave in
no I won't be taken by my wills not breaking I won't be swayed



Am C F G
variations - click chord images
Transpose chords:
Tuning:
Cool service:
View: Size:
A  A  A
Rating:
Layout:
  • Currently 2.4/5 Stars.
  • 1
  • 2
  • 3
  • 4
  • 5
 
Accuracy:
  • Currently 4/5 Stars.
  • 1
  • 2
  • 3
  • 4
  • 5
 
click stars to rate
Chordie recommends:
Learn to play guitar with video-based, online guitar lessons at JamPlay.com
Songbook:
Login to add this song to your songbook
Support the artist
Preview/buy this song
MSN Music
Why this non-profit ad?

 
login to add comments/video/corrections