Damned

Plasmatics

Eb|---------0--------|-------1---------|---------|---------|

Bb|-----1------1-----|-----1-----1-----|-6-x-5---|---------|
Gb|---2----------2---|---2---------2---|-5-x-5---|-5-x-4---|
Db|----------------2-|---------------3-|-5-x-5---|-5-x-5---|
Ab|-0-----0----------|-----------------|---------|-5-x-5---|
Eb|------------------|-1---------------|---------|---------|

 AmFCsus4CGsus4G
 It's easier to hate you, than to carry you in my heart.
 AmFCsus4CGsus4G
 I will take every of your moves, every step you   take.
 FCsus4CFGsus4G
 I would have claimed every day,    but as you´re all next to me.    
 FCsus4CFGsus4G
 And I would feel better  cause my heart will be free, Jeehehe!

CHORUS
 Csus4CAm
 Damned I do love you, but better don't
 FCsus4C
it's getting hard to run away.       
 Csus4CAm
 Damned I can't forget you, but better I do,
 FCsus4C
God, tell me should I stay,  
 AmFCsus4C
should I stay, Babe, should I stay,  
 AmFCsus4C
should I stay, Babe, should I stay?  

VERSE 2
 AmFCsus4CGsus4G
 Anyway, it's my only wish to have  you near  me.
 AmFCsus4CGsus4G
 You will always be a part of me, no matter what we do.    
 FCsus2CFCsus4C
 I want a place in your heart, wherever you may go.    
 FCsus4CFGsus4G
 I feel that you deny me and I hope that I can show, Jeehehe!

CHORUS (2x)

------------------------------------------------------------------


Chords:
Am 002210
 G355433
------------------------------------------------------------------


Am C Csus2 Csus4 F G Gsus4
variations - click chord images
Transpose chords:
Tuning:
Cool service:
View: Size:
A  A  A
Rating:
Layout:
  • Currently 3.1/5 Stars.
  • 1
  • 2
  • 3
  • 4
  • 5
 
Accuracy:
  • Currently 3.1/5 Stars.
  • 1
  • 2
  • 3
  • 4
  • 5
 
click stars to rate
Chordie recommends:
Learn how to play guitar at JamPlay.com
Songbook:
Login to add this song to your songbook
Support the artist
Preview/buy this song
MSN Music
Why this non-profit ad?

 
login to add comments/video/corrections