Guitar Tabs, Chords and Lyrics


Around  Plastica

----------------------------------------------------------------------------



----------------------------------------------------------------------------

G[C]ive me love - S[Em]o that I can start ag[G]ain
B[C]e the one - So [Em]that I can start ag[G]ain
T[C]ravel the world - S[Em]o that I can run ag[G]ain
B[C]e someone - S[Em]o I can believe ag[G]ain
Chorus:

T[C]rue lov[D]e comes ar[Em]ound   [G]
True love comes around

Verse 2:

G[C]ive me words - [Em]So that I can give yo[G]u mine
T[C]each me some - [Em]So that I can believe[G] your lies
T[C]ravel the world[Em] - So that I can move[G] again
B[C]e someone - So [Em]that I can see you ag[G]ain

Chorus:

T[C]rue lov[D]e comes ar[Em]ound   [G]
True love comes around
True love comes around
True love comes around

Interlude: 2x

D* C* B* C*
e|-------0------0-----0------0--------|
B|-------0------0-----0------0--------|
G|-------7------5-----4------5--------|
D|-------7------5-----4------5--------|
A|-------5------3-----2------3--------|
E|------------------------------------|


We remain the same...ahh...ahh
We remain the same...ahh...ahh D.....


Chorus:

T[C]rue lov[D]e comes ar[Em]ound   [G]
True love comes around
True love comes around
True love comes around

Enjoy =)
============================================================================

Important: The song above is NOT stored on the Chordie server. The original song is hosted at www.guitaretab.com. Chordie works as a search engine and provides on-the-fly formatting. Chordie does not index songs against artists'/composers' will. To remove this song please click here.

Text color:
Chord color:
Chord grids: 
Font size:    
Page size: 

C D Em G
variations - click chord images

Login - add to songbook

Transpose chords

Tuning

Rating click stars to rate

Layout
Accuracy

SHARE PAGE  




You need to log in to post comments