Chordie logo


There Are Cooler Ways To Die   Play Radio Play



                              Play Radio Play
                         There are cooler ways to die
 [intro]
e|---------------------------------------------------------------------------|
B|---------------------------------------------------------------------------|
G|---------------------------------------------------------------------------|
D|----0--0-----0----0---0--0--0--0--0----------------------------------------|X2
A|--22-22-22/44-4/55-5-------------------------------------------------------|
E|--------------------33-33-33-33-33-3---------------------------------------|
 [verse 1] 
e|---------------------------------------------------------------------------|
B|---------------------------------------------------------------------------|
G|---------------------------------------------------------------------------|
D|-00000000-0000-0000-0000000000000000---------------------------------------|X4
A|-22222222-4444-5555-XXXXXXXXXXXXXXXX---------------------------------------|
E|--------------------3333333333333333---------------------------------------|
 [chorus]
e|---------------------------------------------------------------------------|
B|--3-3-333-2-22-2222-------------------3-3-333-2-22-333---------------------|
G|--2-2-222-2-22-2222-4-4-444-----------2-2-222-2-22-222-4-4-444-------------|
D|--0-0-000-0-00-0000-4-4-444-5-55-5555-0-0-000-0-00-000-4-4-444-5-55-5555---|
A|--------------------2-2-222-5-55-5555------------------2-2-222-5-55-5555---|
E|----------------------------3-33-3333--------------------------3-33-3333---|
 
e|---------------------------------------------------------------------------|
B|--3-2-3-2-3-2-3-2------------------3-2-3-2-3-2-3-2-------------------------|
G|--2-2-2-2-2-2-2-2--4-4-4-4---------2-2-2-2-2-2-2-2-4-444444----------------|
D|--0-0-0-0-0-0-0-0--4-4-4-4-5-5-5-5-0-0-0-0-0-0-0-0-4-444444-5-555555-------|X2
A|-------------------2-2-2-2-5-5-5-5-----------------2-222222-5-555555-------|
E|---------------------------3-3-3-3--------------------------3-333333-------|
 [verse 2]
e|---------------------------------------------------------------------------|
B|---------------------------------------------------------------------------|
G|---------------------------------------------------------------------------|
D|-00000000-0000-0000-0000000000000000---------------------------------------|X4
A|-22222222-4444-5555-XXXXXXXXXXXXXXXX---------------------------------------|
E|--------------------3333333333333333---------------------------------------|

chorus is played one more time then ends on:

e|----------------|
B|----------------|
G|----------------|
D|--0~~~~~--------|
A|--2~~~~~--------|
E|----------------|


Important: The song above is NOT stored on the Chordie server. The original song is hosted at www.guitaretab.com. Chordie works as a search engine and provides on-the-fly formatting. Chordie does not index songs against artists/composers will. To remove this song please click here.

This song is displayed as text-only. Transposing and tuning is only available for chordpro-songs.

Login - add to songbook

Rating click stars to rate

Layout
Accuracy

SHARE PAGE  




You need to log in to post comments