""; ?> Baby Come Back by Player - guitar chords, guitar tabs and lyrics - chordie

Baby Come Back

Player

E----------------------------------------------------------------|

B---------3--4--6--3------------------3--4--6--------------------|
G--5~--5--------------3-------5~--5------------3--/7--5----------|
D------------------------5---------------------------------------|
A----------------------------------------------------------------|
E----------------------------------------------------------------|

 Ab/BbGm7Ab/BbGm7Cm7
Then, the riff above is harmonized with another guitar. Guitar 1 plays
the same notes as above. Guitar 2 plays it a minor third higher:

E------------3--4-----------------------3--4-----------------------|
B--4~--4--6--------6~--3------4~--4--6-------3--/6--4--------------|
G-------------------------3----------------------------------------|
D------------------------------------------------------------------|
A------------------------------------------------------------------|
E------------------------------------------------------------------|


You could conceivably play the harmonized riff on one guitar,
but it wouldn't sound as smooth. It would be something like:

E-----------3--4-------------------------------------------------|
B--4--4--6--4--6--6-------etc..----------------------------------|
G--5--5--7--------7----------------------------------------------|
D----------------------------------------------------------------|
A----------------------------------------------------------------|
E----------------------------------------------------------------|


 Ab/BbGm7
Spending all my nights, all my money going out on the town

 Ab/BbGm7
Doing anything just to get you off of my mind

 Ab/BbGm7
But when the morning comes, I'm right back where I started again

 Ab/BbBb/CC
Trying to forget you is just a waste of time      

 Abmaj7Gm7Cm7
Baby come back, any kind of fool could see

 Fm7Gm7Cm7
There was something in everything about you

 Abmaj7Gm7Cm7
Baby come back, you can blame it all on me

 Fm7Gm7Cm7Dbmaj7
I was wrong, and I just can't live without you        

(Repeat verse)

"Mini" guitar solo prior to the bridge:

E-----------------------------------------------------------------|
B--11b(13)~-(13)r11--8---------13---------------------------------|
G----------------------10b(12)----r(10)--8--10--------------------|
D-----------------------------------------------8--8--------------|
A-----------------------------------------------------------------|
E-----------------------------------------------------------------|

 Dbmaj7Ab/BbBb

Bridge:

 Gbmaj7Dbmaj7
 Now that I put it all together

 Gbmaj7Dbmaj7
 Give me the chance to make you see

 Gbmaj7Fm7Bbm7
 Have you used up all the love in your heart

 Ab/BbAb/BbBb
Nothing left for me, ain't there nothing left for me

etc..


Abmaj7 Bb Bb/C Bbm7 C Cm7 Dbmaj7 Fm7 Gbmaj7 Gm7
variations - click chord images
Transpose chords:
Tuning:
Cool service:
View: Size:
A  A  A
Rating:
Layout:
  • Currently 2.7/5 Stars.
  • 1
  • 2
  • 3
  • 4
  • 5
 
Accuracy:
  • Currently 2.6/5 Stars.
  • 1
  • 2
  • 3
  • 4
  • 5
 
click stars to rate
Chordie recommends:
Check out JamPlay.com for online video guitar lessons
Songbook:
Login to add this song to your songbook
Support the artist
Preview/buy this song
MSN Music
Why this non-profit ad?

 
login to add comments/video/corrections

vikingo (report comment to admin):
Your 5 Most Popular Songs is blocking view of the chord charts!!


Thank you in advance for fixing.