"yes"; ?> Alle Damer by Plumbo - guitar chords, guitar tabs and lyrics - chordie

Alle Damer

Plumbo

-------------------------------------------------------------------------------

-------------------------------------------------------------------------------

 E-B-C#m-B
 EBC#mB
e|---------------9----------|--------9-12-12-12-12-12-12-9---------9--|
B|-----9-12-12-9----12-9-12-|-12-12-----------------------12-9-12-----|
G|-9-9----------------------|-----------------------------------------|
D|--------------------------|-----------------------------------------|
A|--------------------------|-----------------------------------------|
E|--------------------------|-----------------------------------------|


 EBAB
e|-------------------9----------|----------------------------|-----------------|
B|---9-12-12-12-12-9----12-9-12-|-12-12-12-12-10-10-10-9-----|-----------------|
G|-9----------------------------|-------------------------11-|-11-9-8----------|
D|------------------------------|----------------------------|---------9-9/11--|
A|------------------------------|----------------------------|-----------------|
E|------------------------------|----------------------------|-----------------|


Gitar riff:
C#m - H - A - H |x4

 C#mBABC#mBABC#m
e|-------------|--------------|--------------|---------------|
B|-------------|--------------|--------------|---------------|
G|-9-9-8-9-8---|---8-9-8-9----|----9-8-9-8---|---9-8-9-8-----|
D|-----------9-|-9---------11-|-11---------9-|-9---------11--|
A|-------------|--------------|--------------|---------------|
E|-------------|--------------|--------------|---------------|


Vers 1:

 C#mBAB
 Et vorspiel ut på byen og et nachspiel likeså,
 C#mBAB
 samme hvor du skal hen så er sminka alltid på.
 C#mBAB
 På vorspielet er det ofte kult å shotte lite grann,
 C#mBAB
 da blir vi fin i farta og kåte alle mann.

Gitar riff:
C#m - H - A - H |x2

 C#mBAB
 Tonnevis med sminke for å dolle seg opp,
 C#mBAB
 silikon i puppa for å stramme dem opp.
 C#mBAB
 Men vi gir vel faen det er'kke puppa vi skal ha,
 C#mBAB
 nei gi oss ei fitte så blir vi så gla..

Pre-refreng:

 F#mG#m
 Klokka nærmer seg 2,
 AB
får jeg 'kke dame nå så må jeg runke på do.
 F#mG#m
Men kjenner jeg den rett, så får jeg det til,
 AB
for ner i buksa har jeg noe som gjør dem vild

Refreng:

 EB
 Alle damer er så lette å lure,
 AB
bare gi dem no' pils så er det bare å pule.
 EB
Vi tar dem med på rommet, for vi gir vel faen,
 AB
for en time eller to så har vi

finni en annen.

Gitar riff:
C#m - H - A - H |x4

Vers 2:

 C#mBAB
 Når du kommer ut på byen blir stemninga på topp,
 C#mBAB
 det strammes litt i buksa når vi finner oss en kropp.
 C#mBAB
 Men alle stygge damer har en kjempesøt venninne,
 C#mBAB
 når jeg blir drita full så er dem vanskelig å finne

Gitar riff
C#m - H - A - H |x2

 C#mBAB
 På nachspillet vi drar, hun dama hun er med,
 C#mBAB
 tissen min er stram, jeg skal nok få det te.
 C#mBAB
 Begge er så kåte vi finner oss et rom,
 C#mBAB
 jeg stikker'n inn i musa, men hun er faen ikke dum

Pre-refreng
F#m - G#m - A - H |x2

Refreng
E - H - A - H |x2

Gitar riff
C#m - H - A - H |x4

Pre-refreng
F#m - G#m - A - H |x2

Refreng |x2
E - H - A - H |x2 --> avsluttning

 E
..finni en annen.


A B C#m E F#m G#m
variations - click chord images
Transpose chords:
Tuning:
Cool service:
View: Size:
A  A  A
Rating:
Layout:
  • Currently 2.5/5 Stars.
  • 1
  • 2
  • 3
  • 4
  • 5
 
Accuracy:
  • Currently 2.3/5 Stars.
  • 1
  • 2
  • 3
  • 4
  • 5
 
click stars to rate
Chordie recommends:
Get acoustic guitar lessons and electric guitar lessons at JamPlay.com
Songbook:
Login to add this song to your songbook
Support the artist
Preview/buy this song
MSN Music
Why this non-profit ad?

 
login to add comments/video/corrections