""; ?> Lillian Acoustic by Plus 44 - guitar chords, guitar tabs and lyrics - chordie

Lillian Acoustic

Plus 44

-------------------------------------------------------


 INTRO
 FFFF
e|---0-----------0----------0-----------0-----------|
b|--1-1---------1-1--1-----1-1---------1-1--1--1-0--|
g|-2---2-------2---2------2---2-------2----2--2-----|
d|3-----------3----------3-----------3--------------|
a|--------------------------------------------------|
e|--------------------------------------------------|


 VERSE1
 FAmF
 The place I used to live, made me feel like a tourist  
 AmF
I couldn't coexist, with the cold and suspicious 
 AmF
When the last remaining light, was starting to filter 
 Am
It seemed the perfect time, to step into the future

 CBORUS
 F
Your heart is no grave to be perfectly honest
 CG
Your mouth's a smoking gun
 F
And you smiled while you twisted the knife in my stomach
 CG
'til everything is gone
 FC
Take all you can from me  
 G
I've got weak constitution
 FCG
I'm led so easily       

So easily

 INTERLUDE
 FFFF
e|---0-----------0----------0-----------0-----------|
b|--1-1---------1-1--1-----1-1---------1-1--1--1-0--|
g|-2---2-------2---2------2---2-------2----2--2-----|
d|3-----------3----------3-----------3--------------|
a|--------------------------------------------------|
e|--------------------------------------------------|


 VERSE2
I left it all behind, in the dead of last winter
I left it all behind, but the question still lingers
So long forgotten friends, no, you don't know the difference
Between love and submission, and I'm not that obedient

 CBORUS
Your heart is no grave, to be perfectly honest
Your mouth's a smoking gun
And you smiled while you twisted the knife in my stomach
'til everything is gone
Take all you can from me
I've got weak constitution
I'm led so easily
So easily

 BRIDGE
C C/G Asus2 F (x2)

 CC/GAsus2
 And she's trying to sleep it off
 FC
With her head on my shoulder  
 C/GAsus2
And I'm trying to keep it out
 FC
Of my thoughts when I hold her (Take all you can from me)
 C/GAsus2
And she's trying to sleep it off
 FC
With her head on my shoulder (I'm led so easily)
 C/GAsus2
And I'm trying to keep it out
 F
Of my thoughts when I hold her

 CBORUS
Your heart is no grave, to be perfectly honest
Your mouth's a smoking gun
And you smiled while you twisted the knife in my stomach
'til everything is gone
Take all you can from me
I've got weak constitution
I'm led so easily
So easily

 OUTRO
e|---------0---------------0----0----------------|
b|-1------1-1------1------1-1---1----------------|
g|--2-2------2------2-2------2--2----------------|
d|---3---------2-----3----------3----------------|
a|-------------0---------------------------------|
e|1------1--------1------1-----------------------|				



Am Asus2 C C/G F G
variations - click chord images
Transpose chords:
Tuning:
Cool service:
View: Size:
A  A  A
Rating:
Layout:
  • Currently 2.7/5 Stars.
  • 1
  • 2
  • 3
  • 4
  • 5
 
Accuracy:
  • Currently 2.9/5 Stars.
  • 1
  • 2
  • 3
  • 4
  • 5
 
click stars to rate
Chordie recommends:
Get acoustic guitar lessons and electric guitar lessons at JamPlay.com
Songbook:
Login to add this song to your songbook
Support the artist
Preview/buy this song
MSN Music
Why this non-profit ad?

 
login to add comments/video/corrections