"yes"; ?> Stay by Poets Of The Fall - guitar chords, guitar tabs and lyrics - chordie
-------------------------------------------------------------------------------

-------------------------------------------------------------------------------

 Dm7CAm7Bbmaj7BbGm7
e|-1----0----0----0----x----1----3-|
B|-1----6----1----1----6----3----3-|
G|-2-or-5----0----0----7----3----3-|
D|-0----0----2----2----7----3----3-|
A|-x----x----3----0----x----1----5-|
E|-x----x----0----x----6----1----3-|


Riff:

Dm7 C Am7 Bbmaj7 (use these chords while finger picking)
e|--------0--0----------0---------|
B|------6-------------1----6------|
G|----5------0------0-------------|
D|--0----------------------7------|
A|-----------3----0---------------|
E|-------------------------6------|


Intro: Riff x2

Verse 1: (play riff or chords)

 Dm7CAm7Bbmaj7Dm7CAm7Bbmaj7
        Morning comes slow today,         Memories push through from yesterday

 Dm7CAm7Bbmaj7Dm7CAm7Bbmaj7
        Where will I be tomorrow,       What do I have to show

Pre-Chorus:

 BbGm7
    From my,    life, Oh uh oh

Chorus 1:

 DmAm7BbDmAm7Bb
    Staaaaaaaay, I need you here for a new day to break

 DmAm7BbDmAm7Bb
    Staaaaaaaay, I want you near like a shadow in my wake

Repeat Riff x2

Verse 2: (play riff or chords)

 Dm7CAm7Bbmaj7Dm7CAm7Bbmaj7
        Flow with life down the drain,         Memories and force of will sustain

 Dm7CAm7Bbmaj7Dm7CAm7Bbmaj7
        Where will I be tomorrow,        What will be left to show

Repeat Pre-Chorus

Repeat Chorus

Solo: Repeat Chorus Chords

Bridge:

 DmBbC
It's the little things, Little things, Little things that make the world

 DmBbC
It's the little things, Little things, Little things that make the world

 DmBbC
It's the little things, Little things, Little things that make the world

Dm Bb (pause)
It's the little things, Little things, Little things

Chorus 2:

 Am7BbDmAm7Bb
   Staaaaaaaay, I need you here for a new day to break

 DmAm7BbDmAm7Bb
    Staaaaaaaay, I want you near like a shadow in my wake

 DmAm7BbDmAm7Bb
Staaaaaaaay, oooohhh, here with me, don't you leave

 DmAm7BbDmAm7Bb
    Staaaaaaaay, stay with me, until the day is over

(Say you'll never leave)


Am7 Bb Bbmaj7 C Dm Dm7 Gm7
variations - click chord images
Transpose chords:
Tuning:
Cool service:
View: Size:
A  A  A
Rating:
Layout:
  • Currently 0/5 Stars.
  • 1
  • 2
  • 3
  • 4
  • 5
 
Accuracy:
  • Currently 0/5 Stars.
  • 1
  • 2
  • 3
  • 4
  • 5
 
click stars to rate
Chordie recommends:
Learn to play guitar with video-based, online guitar lessons at JamPlay.com
Songbook:
Login to add this song to your songbook
Support the artist
Preview/buy this song
MSN Music
Why this non-profit ad?

 
login to add comments/video/corrections