Guitar Tabs, Chords and Lyrics


All The Way Four You   Poets Of The Fall



This song is a very beautiful song, and everybody deserves to play it. This tab might 
a few mistakes, so if you find any, please let me know.

Played with Capo in 2nd fret.

Intro / verse:

e|----------5~---------------------------5~------------------|
H|--------5---5-------5-------5--------5---5-------5-------5-|
G|------2-----------4-------2--------2-----------4-------2---|
D|----2-----------2-------2--------2-----------2-------2-----|
A|-5~-----------4~--------------2~-----------4~--------------|
E|----------------------5~---------------------------5~------|

Bridge:

e|---------------3~------|----------------------|
H|---------3---------3---|---------3-----5~-2---|
G|-----------------------|-----4-----4--------4-|
D|-----5-----5---------5-|---4---------4--------|
A|---5---------5---------|-2-----2--------------|
E|-3-----3---------------|----------------------|

e|---------------3~------|----------------------|
H|---------3---------3---|---------3-----5~-----|
G|-----------------------|-----4-----4----------|
D|-----5-----5---------5-|---4---------4--------|
A|---5---------5---------|-2-----2--------------|
E|-3-----3---------------|----------------------|

e|---------------3~------|-----------------|
H|---------3---------3---|-----2---3---5---|
G|-----------------------|-----------------|
D|-----5-----5---------5-|---4---4---4-----|
A|---5---------5---------|-2---------------|
E|-3-----3---------------|-----------------|

Chorus:

e|-----5-------5-----3-------2-----------------------------------|
H|---5---5---5-----3---3---3---3-----5-------5-------5-------5---|
G|-7-------6-----4-------2---------2---2---2---2---2---2---2---2-|
D|-------------------------------5-------4-------2---------------|
A|-------------------------------------------------------5-------|
E|---------------------------------------------------------------|

e|-----5-------5-----3-------2----------2~~-|
H|---5---5---5-----3---3---3---3-----5------|
G|-7-------6-----4-------2---------2--2-----|
D|-------------------------------5----------|
A|------------------------------------------|
E|------------------------------------------|

And then the last bit:

e|----------------------|
H|----------------------|
G|----------------------|
D|-5~---9~---5~---9--7--|
A|-5~---9~---5~---9--7--|
E|-3~---7~---3~---7--5--|

Order:

Verse x 4
Bridge x 1
Verse x 2
Bridge x 1
Chorus x 1
Verse x 2
Bridge x 1
Chrous x1


Important: The song above is NOT stored on the Chordie server. The original song is hosted at www.guitaretab.com. Chordie works as a search engine and provides on-the-fly formatting. Chordie does not index songs against artists'/composers' will. To remove this song please click here.

This song is displayed as text-only. Transposing and tuning is only available for chordpro-songs.

Login - add to songbook

Rating click stars to rate

Layout
Accuracy

SHARE PAGE  




You need to log in to post comments