Dirty Old Town

Pogues

 GC
I met my love by the gas works wall, Dreamed a dream by the old canal
e|-----------------------------------------------------0---------------------|

B|--------------0-----------0-----------------0----3--------3--0----------0--|
G|------0---2-------2---0--------0---------------------------------2---0-----|
D|---0---------------------------------0-------------------------------------|
A|---------------------------------------------------------------------------|
E|---------------------------------------------------------------------------|

 GDEm
I kissed my girl by the factory wall... Dirty old town, Dirty old Town...
e|------0--------------------------------------------------------------------|

B|--0--------3---0-----------0---------------------0-------------------------|
G|--------------------2---0------0----------0--2--------2---2---0------------|
D|------------------------------------0-----------------------------2---2----|
A|---------------------------------------------------------------------------|
E|---------------------------------------------------------------------------|

 G
Clouds are drifting across the moon
 C
Cats are prowling on their beats
 G
Springs a girl on the streets at night
 DEm
dirty old town, dirty old town

 G
Heard a siren from the dock
 C
saw a train cut the night on fire
 G
smelled the breeze on the smokey wind
 DEm
Dirty old town, dirty old town

 G
I'm going to make me a big sharp axe
 C
shining steel tempered in the fire
 G
I'll cut you down like an old dead tree
 DEm
dirty old town, dirty old town

 G
Met my love, by the gas yard wall
 C
Dreamed a dream, by the old canal
 G
Kissed my girl, by the factory wall
 DEm
Dirty old town, dirty old town

that's all!


Corrected by jap8. View original
C D Em G
variations - click chord images
Transpose chords:
Tuning:
Cool service:
View: Size:
A  A  A
Rating:
Layout:
  • Currently 2.7/5 Stars.
  • 1
  • 2
  • 3
  • 4
  • 5
 
Accuracy:
  • Currently 2.5/5 Stars.
  • 1
  • 2
  • 3
  • 4
  • 5
 
click stars to rate
Chordie recommends:
Learn to play songs at Jamplay.com with video guitar lessons
Songbook:
Login to add this song to your songbook
Support the artist
Preview/buy this song
MSN Music
Why this non-profit ad?

 
login to add comments/video/corrections