Guitar Tabs, Chords and Lyrics

Young Ned Of The Hill  Pogues

e ---------------------------------------------------------8-8-6----|

B -----------6-------------------------------6-----6---6-8-------8--|

G -----5-7-8---7-------5-7-5-----------5-7-8---7-8---8--------------|

D -5-8-----------8-5-8-------8-5---5-8------------------------------|
A -------------------------------8----------------------------------|
E ------------------------------------------------------------------|
e ----------------------------------------|
B ----------------------------------------|
G ---------------------5------------------|
D -8-5-------------------8-5--------------|
A -----8-6---6-8---6-8-------8-6---6-8----|
E ---------8-----8---------------8-----8--|
Have you [Am]ever walked the [Em]lonesome hills and [Am]heard the curlews [Em]cry
Or [Am]seen the raven [Em]black as night u[Am]pon a windswept sky
To [Am]walk the purple [Em]heather and [C]hear the westwind [G]cry
Am Em Am|Em Am ||
To know that's where the rapparee must die

Inst 1 |Am Em|Am Em Am|Am Em |Am Em Am||

Since Cromwell pushed us westward to live our lowly lives
There's some of us have deemed to fight from Tipperary mountains high
Noble men with wills of iron who are not afraid to die
Who'll fight with Gaelic honour held on high

A curse upon you Oliver Cromwell you who raped our Motherland
I hope you're rotting down in hell for the horrors that you sent
To our misfortunate forefathers whom you robbed of their birthright
To hell or Connaught may you burn in hell tonight

Inst 2 |Am Em|Am Em Am||

Of such a man I'd like to speak a rapparee by name and deed
His family dispossessed and slaughtered they put a price upon his head
His name is know in song and story his deeds are legends still
And murdered for blood money was young Ned of the hill

You have robbed our homes and fortunes even drove us from our land
You tried to break our spirit but you'll never understand
The love of dear old Ireland that will forge and iron will
As long as there are gallant men like young Ned of the hill

Chorus 2

Inst 3 |Am Em |Am Em |Am Em|Am |Am Em |C G|Am Em |Am Em Am||
||:Am Em |Am Em |Am Em|Am |Am Em |C G|Am Em |Am Em Am:||

Chorus 3

Outro |Am Em |Am Em Am|Am Em |Am Em Am||

Important: The song above is NOT stored on the Chordie server. The original song is hosted at Chordie works as a search engine and provides on-the-fly formatting. Chordie does not index songs against artists/composers will. To remove this song please click here.

Text color:
Chord color:
Chord grids: 
Font size:    
Page size: 

Am C Em G
variations - click chord images

Login - add to songbook

Transpose chords


Rating click stars to rate



You need to log in to post comments