Guitar Tabs, Chords and Lyrics


Wishful Thinkin   Poison



Yeah, this is an easy song, a little punkish but either way its a good song and its 
expect me to tab alot of the "hollywierd" album

Tuning: Eb Ab Db Gb Bb Eb

Riff 1 (main riff)
|----------------------------------------|
|----------------------------------------|
|-7-77-7-7-5-55-7-7-7-77-7-7--55555522---|
|-5-55-7-7-5-55-7-7-5-55-7-7--55555522---|
|------5-5-3-33-5-5------5-5--33322200---|
|----------------------------------------|


                    Solo 1 (intro solo)
|----------------------------------------------|
|----------------------------------------------|
|-12--12-12--7-7-9-5--5-5-4-5-4-4--4-4-2-4-0~~-|
|----------------------------------------------|
|----------------------------------------------|
|----------------------------------------------|

Riff 2 (verse riff)
|----------|
|----------|
|-7-77-----|
|-5-55-----|
|----------|
|----------|

Riff 3 (bend is a full step up)   Riff 4                   Riff 5
|----------------|            |----------------|       |------------------|
|----------------|            |----------------|       |-15b-15br-------15|
|-12-14-14b-14-12|            |----------------|       |----------14-12---|
|----------------|            |-12h14p12h14p12-|       |------------------|
|----------------|            |----------------|       |------------------|
|----------------|            |----------------|       |------------------|

Riff 6 (bridge)
|---------------------------------|
|---------------------------------|
|-7-77---7-77---7-77---55555522---|
|-5-55---5-55---5-55---55555522---|
|----------------------33322200---|
|---------------------------------|

Solo 2 (mostly tremlo picked)
|-------------------------------------|
|-------------------------------------|
|-12--14--16--17p16-17p16--14--16--12-|
|-------------------------------------|
|-------------------------------------|
|-------------------------------------|
Order
Riff 1
Riff 1 / Solo 1
Riff 2 x8 (Verse 1)
Riff 1 x2 (Chorus)
Riff 1
Riff 2 x8 (Verse 2)
Riff 1 x2 (Chorus)
Riff 1
Riff 2
Riff 3 (this happens during the bass solo)
Riff 4
Riff 3
Riff 5
Riff 6
Riff 1
Riff 1 / Solo 1
Riff 1 / Solo 2 x2
Riff 1
End.

If you have any questions please e-mail me at slashinrosesyahoo.com


Important: The song above is NOT stored on the Chordie server. The original song is hosted at www.guitaretab.com. Chordie works as a search engine and provides on-the-fly formatting. Chordie does not index songs against artists'/composers' will. To remove this song please click here.

This song is displayed as text-only. Transposing and tuning is only available for chordpro-songs.

Login - add to songbook

Rating click stars to rate

Layout
Accuracy

SHARE PAGE  




You need to log in to post comments