Murder By Numbers

Police


-------------------------------------

-------------------------------------


 E7#9Bbsus2/AB7#9Bb7
E|-----------------------|-------------
B|-------8------6--------|-------------
G|-------7------5--------|----7----7---
D|-------6------8--------|----7----6---
A|-5-6---7---0-----------|----6----5---
E|-----0-----------------|--7----6-----

Phrase II (verse)
 Em7Bbsus2/ABm7Bb7
E|-----------------------|-------------
B|-------8------6--------|-------------
G|-------7------5--------|----7----7---
D|-------5------8--------|----7----6---
A|-5-6---7---0-----------|----5----5---
E|-----0-----------------|--7----6-----

Phrase III (pre-chorus)
 F#7(#9Fmaj7Bm7
E|----------------------------
B|---10-------10--------------
G|---9--------9------7--------
D|---8--------7------7--------
A|-9------8----------5--------
E|-------------------7--------

Phrase IV (chorus)
Em9 Fm7 Gmaj7 Fm7 Gmaj7 (alternate fingering)
E|--------------7---------|-2--------------------------
B|----7----2----7----2----|-0--------------------------
G|----7----2----7----2----|-0--------------------------
D|----5----2----5----2----|-0--------------------------
A|----7----4---------4----|-2--------------------------
E|--0----2----3----2------|-3--------------------------				

































B7#9 Bb7 Bbsus2/A Bm7 E7#9 Em7 Fmaj7
variations - click chord images
Transpose chords:
Tuning:
Cool service:
View: Size:
A  A  A
Rating:
Layout:
  • Currently 2.8/5 Stars.
  • 1
  • 2
  • 3
  • 4
  • 5
 
Accuracy:
  • Currently 2.6/5 Stars.
  • 1
  • 2
  • 3
  • 4
  • 5
 
click stars to rate
Chordie recommends:
Learn to play songs at Jamplay.com with video guitar lessons
Songbook:
Login to add this song to your songbook
Support the artist
Preview/buy this song
MSN Music
Why this non-profit ad?

 
login to add comments/video/corrections