Chordie logo

Fadeaway   Porcupine Tree



-------------------------------------------------------------------------------
			     FADEAWAY by Porcupine Tree
-------------------------------------------------------------------------------

Tabbed by: Ithin

Standard tuning


/ = slide up
\ = slide down
h = hammer-on
p = pull-off
b = bend up

Chords for intro and verses:

   G     F     C   Bbsus2  Dm
e|-3-----1-----0-----1-----1-------------|
B|-3-----1-----1-----1-----3-------------|
G|-0-----2-----0-----3-----2-------------|
D|-0-----3-----2-----3-----0-------------|
A|-2-----------3-----1-------------------|
E|-3-------------------------------------|

Intro:

e|-1-/7---8-7-------8-7---------------------------------------------|
B|-1-/8-------8---8-----8-8--6-5-6--6h8-5---------------------------|
G|--------------7-------------------------5-3-2-3-2-3-2-------------|
D|------------------------------------------------------3-3-3/5-----|
A|------------------------------------------------------------------|
E|------------------------------------------------------------------|


e|-1-/7--10-10-10--12-10-12-12b13-12----------12-------12-13-12------------------------------|
B|-1-/8------------------------------13-13-------13-------------13----13p11-11-11-10-11-10---|
G|-----------------------------------------12-------12-------------12------------------------|
D|-------------------------------------------------------------------------------------------|
A|-------------------------------------------------------------------------------------------|
E|-------------------------------------------------------------------------------------------|

Chords for bridge and ending:

  Cadd9    G    Bbsus2
e|--3------3------1------|
B|--3------3------1------|
G|--0------0------3------|
D|--2------0------3------|
A|--3------2------1------|
E|---------3-------------|

"Hit heaven far too high":

e|---------3---------------3---------------1-0---0-1-0---0-1-0----|
B|-------3---3-----------3---3-----------1-----1-------1-------1--|
G|-----0-------0-------0-------0-------3--------------------------|
D|---2-----------2---0-----------0---3----------------------------|
A|-3---------------2---------------1------------------------------|
E|----------------------------------------------------------------|

Outro (also playing in "Hit heaven far too high") :

e|-----8-7-8-7-8-7-----------5-6-6-5--------------------|
B|------------------8-8----8---------6--6---------------|
G|------------------------------------------------------|
D|------------------------------------------------------|
A|------------------------------------------------------|
E|------------------------------------------------------|

Last bar:

e|-8-7-8-7-8-7--------------------|

B|-------------8-8----------------|
G|-----------------7-7-5-5----5\--|
D|--------------------------------|
A|--------------------------------|
E|--------------------------------|

Questions and comments to bearhunt@gmail.com


Important: The song above is NOT stored on the Chordie server. The original song is hosted at www.guitaretab.com. Chordie works as a search engine and provides on-the-fly formatting. Chordie does not index songs against artists/composers will. To remove this song please click here.

This song is displayed as text-only. Transposing and tuning is only available for chordpro-songs.

Login - add to songbook

Rating click stars to rate

Layout
Accuracy

SHARE PAGE  

You need to log in to post comments