Guitar Tabs, Chords and Lyrics


Baby Dream In Cellophane   Porcupine Tree



4/4
Gtr I
Q. H E Q e E H E E Q H
||-------------|------------|--------------|
||-------------|------------|--------------|
||--2----2-----|-2-2h3-3----|-3--3h5--5----|
||--0----0-----|-0-0---0----|-0--0-0--0----|
||-------------|------------|--------------|
||-------------|------------|--------------|


Q E E H E Q. H Q E E H Q E Q Q.
|---------------|--------------|--------------|------------|
|---------------|--------------|--------------|------------|
|-5--5-\2--2----|-0h=2----2----|-2-2h3-3------|-3-3h5-5----|
|-0--0--0--0----|-0-(0)---0----|-0-0---0------|-0-0---0----|
|---------------|--------------|--------------|------------|
|---------------|--------------|--------------|------------|


Q E E E E E E E E Q. E Q Q Q E E Q Q E Q E
|---------------|----------------|-0--0--0----0-|-0--0--0-0--0-|
|---------------|----------------|-3--3--3--3-3-|-3--3--3-5--5-|
|-5----5-\2-2h3-|-2h3-2h3--2-----|-2--2--2--2-2S|=4--4--4S6--6-|
|-0----0--0-0---|-0---0----0-----|-0-----0--0-0-|-0--0--0-0--0-|
|---------------|----------------|--------------|--------------|
|---------------|----------------|--------------|--------------|


Q E Q E Q Q E Q Q S S E Q T Q T S E S
|-0--0-0--0-0--|-0--0-0--0--0-0-|-0--0---0---0--0-0-|
|-5--5-5--5-7--|-7--7-7--7--7-7-|-7--7-7-7-7-7--7-7-|
|-6--7-7--7-7--|-7--7-7--7--7-7-|-7--7-7-7-7-7--7-7-|
|-0--0-0--0-0--|-0--0-0-----0-0-|-0--0-------0--0-0-|
|--------------|----------------|-------------------|
|--------------|----------------|-------------------|


Q Q Q E E Q E E E Q E E E Q E E E E Q Q Q E E
|--------------|---------------|----------------|-0--0--0----0-|
|-2--2--2--3-3-|-3--3s5-5-5--7-|-7-7-7--7-7-7-7-|-3--3--3--3-3-|
|-0--0--0--0-0-|-0--0-0-0-0--0-|-0-0-0--0-0-0-0-|-2--2--2--2-2S|
|-2--2--2S=4-4-|-4--4S5-5-5--7-|-7-7-7--7-7-7-7-|-0-----0--0-0-|
|-0--0--0--0-0-|-0--0-0-0-0--0-|-0-0-0--0-0-0-0-|--------------|
|--------------|---------------|----------------|--------------|


Q Q E Q E Q E Q E Q Q Q Q Q
|-0--0--0-0--0-|-0--0-0--0-0--|--0-0---0-----0----|
|-3--3--3-5--5-|-5--5-5--5-7--|--7-7---7-----7----|
|-4--4--4S6--6-|-6--7-7--7-7--|--7-7---7-----7----|
|-0--0--0-0--0-|-0--0-0--0-0--|--0-0---------0----|
|--------------|--------------|-------------------|
|--------------|--------------|-------------------|

Chorus
~~~~~~ ~ ~
Q. E Q E E Q Q E E Q Q E Q E Q
||--0---0-------0-|-0-------0-0--|-3--3-3--3-3--|
||o-3---3--3--3-3-|-3--3----3-3--|-3--3-3--3-3--|
||--2---2--2--2-2-|-0--0--0-0-0--|-0--0-0--0-0--|
||--0---0--0--0-0-|-2--2--2-2-2--|-0----0--0-0--|
||o---------------|-3--3--3-3-3--|-2----2--2-2--|
||----------------|--------------|-3----3--3-3--|


~
E Q S E Q E. E S Q E Q E.
|-0h2----2p=0-0--|-0-0h2-2p0--0---||
|-3-3----3--3-3--|-3---3---3--3--o||
|-2-2-0h=2--2-2--|-2---2---2--2---||
|-0-0----0--0----|-0---0---0--0---||
|----------------|---------------o||


Important: The song above is NOT stored on the Chordie server. The original song is hosted at www.guitaretab.com. Chordie works as a search engine and provides on-the-fly formatting. Chordie does not index songs against artists'/composers' will. To remove this song please click here.

This song is displayed as text-only. Transposing and tuning is only available for chordpro-songs.

Login - add to songbook

Rating click stars to rate

Layout
Accuracy

SHARE PAGE  




You need to log in to post comments