Bright Ideas

Portastatic

-------------------------------------------------------------------------------

-------------------------------------------------------------------------------

 C#mAC#mAC#m
thought I found the channel but it got choked off          

 C#mAC#mAC#m
thought I found the channel but the channel got choked off        

 BmDF#m
 Thought I found the channel, it was just a shallow trough   

 C#mAC#mAC#m
I'll put my bright ideas right back in the box             

 C#mAC#mAC#m
I'll put my bright ideas right back in the box             

solo:
e|------------------------------------------7-9-7----------------------------|
B|-9-9--7-----7-------------------------7-9-------9-7---9-7-9-7--------------|
G|---------9-----9--6-----9--6----6---9-----------------------------6-(^)----|
D|---------------------9--------9--------------------------------9-----------|
A|---------------------------------------------------------------------------|
E|---------------------------------------------------------------------------|


 C#mAC#mAC#m
thought I found the panel but the switches broke off         

 C#mAC#mAC#m
thought I found the panel but the switches were broken off       

 BmDF#m
 I sanded down my edges but the world play's rough      

 C#mAC#mAC#m
I put my bright ideas right back in the box            

 C#mAC#mAC#m
I put my bright ideas right back in the box            

solo:

 BAG#mF#mBAG#mF#mB
e|---------------------------------------------------------------------------|
B|-----------/14--12-------12-12---------------------------------------------|
G|----11--13---------13-14--------13-13-11h13p11-----------------------------|
D|-14---------------------------------------------11--9-6/9--9---------------|
A|---------------------------------------------------------------------------|
E|---------------------------------------------------------------------------|


 EB
 Every step I take is part of my path

 AF#m
But none of my jokes ever make me laugh

 EB
Sometimes you wanna put the past in the past

 CA
But every generation gets bit in the ass...

(solo)

 C#mAC#mAC#m
kept the same dirty frame but I got new glass             

 C#mAC#mAC#m
kept the same dirty frame but I got new glass              

 BmDF#m
It brought the future into focus, it was easy, ugly and crass    

 C#mAC#mAC#m
I'll put my bright ideas right back in my ass            

 C#mAC#mAC#m
pull my head out the pillow and stare at the clock             

 C#mAC#mAC#m
 when you're expecting the worst you know you never get shocked           

 BmDF#m
I wanna crush this feeling, wanna climb out of this box   

 C#mAC#mAC#m
Today I'm gonna push back yeah I'm not gonna stop              

 C#mAC#mAC#m
Today I'm gonna push back yeah I'm not gonna stop              

 BAG#mF#mBAG#mF#mB
e|---------------------------------------------------------------------------|
B|-----------/14--12-------12-12---------------------------------------------|
G|----11--13---------13-14--------13-13-11h13p11-----------------------------|
D|-14---------------------------------------------11--9-6/9--9---------------|
A|---------------------------------------------------------------------------|
E|---------------------------------------------------------------------------|


 EB
 Every step I take is part of my path

 AF#m
But none of my jokes ever make me laugh

 EB
Sometimes you wanna put the past in the past

 CA
But every generation gets bit in the ass...

| / slide up
| \ slide down
| h hammer-on
| p pull-off
| ~ vibrato
| + harmonic
| x Mute note
===============================================================================


A B Bm C C#m D E F#m G#m
variations - click chord images
Transpose chords:
Tuning:
Cool service:
View: Size:
A  A  A
Rating:
Layout:
  • Currently 3.2/5 Stars.
  • 1
  • 2
  • 3
  • 4
  • 5
 
Accuracy:
  • Currently 3/5 Stars.
  • 1
  • 2
  • 3
  • 4
  • 5
 
click stars to rate
Chordie recommends:
Check out JamPlay.com for online video guitar lessons
Songbook:
Login to add this song to your songbook
Support the artist
Preview/buy this song
MSN Music
Why this non-profit ad?

 
login to add comments/video/corrections