Guitar Tabs, Chords and Lyrics


All Mine  Portishead

----------------------------------------------------------------------------



----------------------------------------------------------------------------

[Eb]All the stars may shine bright[D5],
All the clouds may be whi[A5]te,
[Eb]But when you smile,
Oh how I[D5] feel so good,
That I can hardly w[A5]ait
PRE-CHORUS:

[B]To hold you,
[C#]Enf[D5]old you,   [C#]
[B]Never enough,
Render your heart [C#]to m[D5]e.

CHORUS:

[Eb]All mine,[D5]
[D5]You have to[Eb] be  [D5]

VERSE:

[Eb]From that cloud, number nine,[D5]
Danger starts the sharp incli[A5]ne,
[Eb]And such sad regrets,
Oh as t[D5]hose starry skies,
As they swiftly [A5]fall.

PRE-CHORUS:

[B]Make no mistake,
[C#]You[D5] shan't escape,[C#]
[B]Tethered and tied,
There's nowhere to hide f[C#]rom [D5]me.

CHORUS:

[Eb]All mine[D5],
[D5]You have to [Eb]be  [D5]

Solo:
   [Eb]         [D5]      [A5]       [Eb]            [D5]     [A5]                                         
D|---------------------------------8-7~----|
A|-6~----6-9-8~----------6~----6-9---------|
E|-----------------------------------------|



PRE-CHORUS:

[B]So don't resist,
[C#]We s[D5]hall exist  [C#]
[B]Until the day,
Until the day,[C#] I di[D5]e.

CHORUS:

[Eb]All mine,[D5]
[D5]You have to [Eb]be  [D5]

Solo at approx 3:17, play around with something like:

e|--------------------------------------------------------------------|
B|------9b10---10b11--10b11-9b10-9b10-10b11----10b11-10b11-9b10-9b10--|
G|-/8~----------------------------------------------------------------|
D|----8~-----7~-----8~----------------------8~------------------------|
A|--------------------------------------------------------------------|
E|--------------------------------------------------------------------|
e|--------------------------|
B|-10b11---10b11-9b10-9b10--|
G|--------------------------|
D|-------8~-----------------|
A|--------------------------|
E|--------------------------|


Jim

Important: The song above is NOT stored on the Chordie server. The original song is hosted at www.guitaretab.com. Chordie works as a search engine and provides on-the-fly formatting. Chordie does not index songs against artists'/composers' will. To remove this song please click here.

Text color:
Chord color:
Chord grids: 
Font size:    
Page size: 

A5 B C# D5 Eb
variations - click chord images

Login - add to songbook

Transpose chords

Tuning

Rating click stars to rate

Layout
Accuracy

SHARE PAGE  




You need to log in to post comments