Guitar Tabs, Chords and Lyrics


They Know Who You Are   Powerman 5000



Db tuning

Intro: Guitar 1 x4
|-------------------------|
|-------------------------|
|-------------------------|
|-------------------------|
|-------------------------|
|-5-5--5-5--5-5-5--5--5-5-|

Verse 1: both guitar x4
|-------------------------|
|-------------------------|
|-------------------------|
|-------------------------|
|-------------------------|
|-5-5--5-5--5-5-5--5--5-5-|

Interlude 1: x4

Guitar 1:
|-------------------------|
|-------------------------|
|-------------------------|
|-2-2--2-2--2-2-2--2--2-2-|
|-2-2--2-2--2-2-2--2--2-2-|
|-2-2--2-2--2-2-2--2--2-2-|

Guitar 2:
|-------------------------|
|-------------------------|
|-9-9--9-9--9-9-9--9--9-9-|
|-------------------------|
|-------------------------|
|-------------------------|

Verse 2: same intro

Verse 3: same verse 1

Interlude 2: same interlude 1

Pre-chorus 1:

Guitar 1:
|---------------------------------------------------------------------|
|---------------------------------------------------------------------|
|---------------------------------------------------------------------|
|-0---0---0--0-0-2-3-0---0-0-2-3---0---0---0--0-0-2-3-0---0---0-0-2-3-|
|-0---0---0--0-0-2-3-0---0-0-2-3---0---0---0--0-0-2-3-0---0---0-0-2-3-|
|-0---0---0--0-0-2-3-0---0-0-2-3---0---0---0--0-0-2-3-0---0---0-0-2-3-|

Guitar 2: w/tremolo picking
|---------------------------------------------------------------------|
|---------------------------------------------------------------------|
|-9-----------------/14------------9-----------------/14--------------|
|-x------------------x-------------x------------------x---------------|
|-7-----------------/12------------7-----------------/12--------------|
|---------------------------------------------------------------------|

Chorus 1:

Guitar 1 & 2:
|------------------------------|
|------------------------------|
|------------------------------|
|-0-0---0-10-10---9-9-9--7-7-7-|
|-0-0---0-10-10---9-9-9--7-7-7-|
|-0-0---0-10-10---9-9-9--7-7-7-|

Verse 4: same intro

Verse 5: same verse 1

Interlude 3: same interlude 1

Pre-chorus 2: same pre-chorus 1

Chorus 2: Guitar 1 & 2
|------------------------------------------------------------|
|------------------------------------------------------------|
|------------------------------------------------------------|
|-0-0---0-10-10---9-9-9--7-7-7--0-0---0-10-10---9-9-9--7-7-7-|
|-0-0---0-10-10---9-9-9--7-7-7--0-0---0-10-10---9-9-9--7-7-7-|
|-0-0---0-10-10---9-9-9--7-7-7--0-0---0-10-10---9-9-9--7-7-7-|

|------------------------------|
|------------------------------|
|------------------------------|
|-0-0---0-10-10---9-9-9--3-3-3-|
|-0-0---0-10-10---9-9-9--3-3-3-|
|-0-0---0-10-10---9-9-9--3-3-3-|



Important: The song above is NOT stored on the Chordie server. The original song is hosted at www.guitaretab.com. Chordie works as a search engine and provides on-the-fly formatting. Chordie does not index songs against artists'/composers' will. To remove this song please click here.

This song is displayed as text-only. Transposing and tuning is only available for chordpro-songs.

Login - add to songbook

Rating click stars to rate

Layout
Accuracy

SHARE PAGE  




You need to log in to post comments