Guitar Tabs, Chords and Lyrics


Liquid Courage   Pretty Girls Make Graves



Liquid Courage - Pretty Girls Make Graves
left speaker - guitar 1
right speaker - guitar 2
Standard Tuning
-------------------------------------
Guitar 2
-------------------------------------
Intro

e----------------------------------------|
b---0-0----0-0-----0---0-0---(7)----- -7-| in () is right before verse
g-7-----7-------7----7----7--------------|
d----------------------------------------|
a----------------------------------------|
E----------------------------------------|

Verse

e---------------------------------------|
b-0---0---0---0~---0---0---0---0~-------|
g---7---6---4~-------7---6---4~~~/2/4---|
d---------------------------------------|
a---------------------------------------|
E---------------------------------------|

Chorus

e--------------------------------------|
b--------------------------------------|
g-7-4-4-7-4-4-7-4-4-7------------------|
d----------------------4-7-4/5/4-2-0---|
a--------------------------------------|
E--------------------------------------|

Middle solo thing (1:41)

e-7----2--0------0-----0---5/7---2-0---0-----0--7-7---|
b------------7------7----------------7---7------5-5---|
g-----------------------------------------------------|
d-----------------------------------------------------|
a-----------------------------------------------------|
E-----------------------------------------------------|
Other guitar has a solo thing then this

Bridge

e------------------------------------------------------|
b-12-12-12-12------------------------------------------|
g-11-11-11-11-11-11-11/16------------------------------|
d-9--9---x---x---x---x/x-------------------------------|
a--------9---9---9---9/14----5--9--7-------------------|
E--------------------------0------------12-12-10-7-0---|

Then this riff

e--------------------------------|
b----------------------------7---|
g-7-4---7-4----7-4----5-4-5------|
d-----5------5-----5-------------|
a--------------------------------|
E--------------------------------|

then play the chorus riff

Outro

e------------------------------------------------------------------------|
b------------------------------------------------------------------------|
g-12-12-12-12-12-12-11-11-11-11-11-12-12-12-12-12-11-11-11-11------------|
d-----------------------------------------------------------------9~~~---|
a-----------------------------------------------------------------9~~~---|
E-----------------------------------------------------------------7~~~---|

------------------------------------------
Guitar 1
------------------------------------------

Verse

e-----7-----5---------7----7/10/7/10----7----|
b---7----------7----7-----------------7------|
g--------------------------------------------|
d--------------------------------------------|
a--------------------------------------------|
E--------------------------------------------|

Chorus

e-----------------|
b-----------------|
g-----------------|
d-9-9-------7-7---|
a-9-9-------7-7---|
E-7-7-------5-5---|

Post chorus

e-----5--5----7---5---7-----|
b--7---7--------------------|
g---------------------------|
d---------------------------|
a---------------------------|
E---------------------------|

Middle solo thing (1:41)

e-7----2--0------0-----0---5/7---2-0---0-----0--------|
b------------7------7----------------7---7------------|
g-----------------------------------------------------|
d-----------------------------------------------------|
a-----------------------------------------------------|
E-----------------------------------------------------|

then this

e--16-14------18-14---16-14----18-14---|
b---------0-----------------0----------|
g--------------------------------------|
d--------------------------------------|
a--------------------------------------|
E--------------------------------------|

this part "i hear the words of a sad sad song"

e--------------|
b--------------|
g--------------|
d-66666-4444---|
a-66666-4444---|
E-44444-2222---|

Outro

e-5-----5-----5-----5----9----5-------|
b---7-7---7-7---7-7--------7----------|
g-------------------------------------|
d---------------------------------9---|
a---------------------------------9---|


Important: The song above is NOT stored on the Chordie server. The original song is hosted at www.guitaretab.com. Chordie works as a search engine and provides on-the-fly formatting. Chordie does not index songs against artists/composers will. To remove this song please click here.

This song is displayed as text-only. Transposing and tuning is only available for chordpro-songs.

Login - add to songbook

Rating click stars to rate

Layout
Accuracy

SHARE PAGE  




You need to log in to post comments