Chordie logo

Scissor Man   Primus



PRIMUS
"Scissor Man"
Tabbed by: Dave

Awesome XTC cover.

INTRO/VERSE
E-------------------------------------------------------------|
B-3--0--1--0------0-----0--------0-------0-------0-------0----|
G--------------2-----0---------0-------0---0---0-------0---0--|
D---0--0--0--0--0--0---0--0--2-----2-0-------2-----2-0--------|
A-------------------------------------------------------------|
E-------------------------------------------------------------|


E--------------------------------------|
B---4---4---4--------------------------|
G---------------0----------------------|
D-1------------------------------------|
A-----3---1---3------------------------|
E--------------------------------------|

E------------------------------|-----------------------------------|
B-----1-------3----------------|-3-5-3-----------------3-5-3-------|
G---1---1---2---2---0---0---0--|-------4---------------------4-----|
D-1-------0-----------4---4----|---------4--5--4-5-4-5---------4---|
A------------------------------|-----------------------------------|
E-----------------3------------|-----------------------------------|

PRE-CHORUS
 G5  B5  D5
E------------------------------------------------|
B------------------------------------------------|
G------------------------------------------------|
D----4--7---5-5-5-5-5-5-7------4--7--5-5-5-5-5---|
A-5--2--5---2-3-2-3-2-3-5---5--2--5--2-3-2-3-2-5-|
E-3-------------------------3------------------3-|

For the "All self-made bad boys" 'CHORUS' part just pick the high notes on these barre chords

F/C/Am/F



Important: The song above is NOT stored on the Chordie server. The original song is hosted at www.guitaretab.com. Chordie works as a search engine and provides on-the-fly formatting. Chordie does not index songs against artists/composers will. To remove this song please click here.

This song is displayed as text-only. Transposing and tuning is only available for chordpro-songs.

Login - add to songbook

Rating click stars to rate

Layout
Accuracy

SHARE PAGE  



You need to log in to post comments