Guitar Tabs, Chords and Lyrics


Ako Trazis Nekoga  Prljavo Kazaliste

           [Am]          [Asus2]          [Am]       [Asus2]         [Am]                                   
e|---15-17------10-12------3-5-0-----------------------------10-12-15-17--|
B|---------17---------12-----------3-5-0---0--------10-12-13--------------|
G|-----------------------------------------2-0-2--------------------------|
D|-----------------------------------------2------------------------------|
A|------------------------------------------------------------------------|
E|------------------------------------------------------------------------|



Ako trazis nekog[G]a,
[Dm]nekoga za setanje,
[F]onda ja sam covjek za teb[Am]e.
Imam sedam milja d[G]uge korak[Dm]e,
[F]lake kao oblak[Am]e.
Ako trazis nekog[G]a,
[Dm]nekoga za plakanje,
[F]onda ja sam rame za teb[Am]e.   [Asus2]
Uzmi me[F],
to je sudbin[Am]a.
Ima z[G]ena koje zakljucaju
s[F]rce poput dragog kamena[C]
Uzmi me[F],
to je sudbin[Am]a.
Ima z[G]ena koje zakljucaju
s[F]rce poput dragog kamen[Am]a    [Asus2]
bass: A, C) G
Ako trazis nekoga,
[Dm]nekoga za cuvanje,
[F]onda imam ruke za teb[Am]e.
I za tvoje vrelo c[G]elo, dlanov[Dm]e
hej, m[F]eke kao jastuk[Am]e.


Ako trazis nekog[G]a
[Dm]nekoga za zauvjek
[F]onda tvoj sam covjek od[Am]uvjek.[Asus2]
Uzmi me[F],
to je sudbin[Am]a.
Ima z[G]ena koje zakljucaju
s[F]rce poput dragog kamena[C]
Uzmi me[F],
to je sudbin[Am]a.
Ima z[G]ena koje zakljucaju
s[F]rce poput dragog kamen[Am]a
F Am G F C; F Am G F Am
Uzmi me....


Used chords:

EADGBe
Am------x02210

Asus2---x02200
G-------320033
Dm------xx0231
F-------133211
C-------x32010



Any comments post me at tordajav@yahoo.com

Important: The song above is NOT stored on the Chordie server. The original song is hosted at www.guitaretab.com. Chordie works as a search engine and provides on-the-fly formatting. Chordie does not index songs against artists'/composers' will. To remove this song please click here.

Text color:
Chord color:
Chord grids: 
Font size:    
Page size: 

Am Asus2 C Dm F G
variations - click chord images

Login - add to songbook

Transpose chords

Tuning

Rating click stars to rate

Layout
Accuracy

SHARE PAGE  




You need to log in to post comments