Guitar Tabs, Chords and Lyrics


Ma Kog Me Boga Za Tebe Pitaju  Prljavo Kazaliste

    [C]                         [G/B]            [G7/B]                                
e-|----------3--------3----|----------3--------1-----|
B-|-------1-----1--------1-|-------0-----0--------0--|
D-|----0-----------0-------|----0-----------0--------|
G-|------------------------|-------------------------|
A-|-3----------------------|-2-----------------------|
E-|------------------------|-------------------------|


Bass:
D-|------------------------|-------------------------|
G-|----------------------9-/-12----10----9-----10----|
A-|-------------------7----|-------------------------|
E-|-8-----------8--10------|-------------------------|


Guitar:
    [Am]                         [Fadd9]            [G]                               
e-|----------0-------------|----------3-----------3--|
B-|-------1-----1-----1----|-------1-----------0-----|
D-|----2-----------2-----2-|----2-----------0--------|
G-|------------------------|-3-----------0-----------|
A-|-0----------------------|-------------------------|
E-|------------------------|-------------------------|


Bass:
D-|------------------------|-------10----------12----|
G-|-7----------------------|----10----------12-------|
A-|------------------------|-8-----------10----------|
E-|------------------------|-------------------------|


1.
[C]Ma kog' me boga [G/B]za tebe[G7/B] pitaju [Am]    [Fadd9]       [G]
Spustam glavu, brisem finu prasinu
I rijetke ptice pjevajuci umiru
A na polju hladne kise padaju

2.
Ma kog' me boga za tebe pitaju
U sebi molim da me suze ne izdaju
I strasno mrzim Romea i Juliju
Sve mi stvari smrde sad na prevaru

Chorus
Ooo ooo Ooo ooo
Na polju hladne kise padaju
Ooo ooo Ooo ooo
Na polju hladne kise padaju

Solo

e-|--------------------------------------5-5--------------------|
B-|-----------------------------8------------8--8-8-6--6-5-6-8--|
D-|------------------5--7-5-7/9---9p7-5~------------------------|
G-|-5----------5-7-5--------------------------------------------|
A-|-3--5-3-5/7--------------------------------------------------|
E-|-------------------------------------------------------------|
e-|-------------5---5---------5--5-7--7-8---------------------|
B-|-------5-6-8---8---8--6-5~---------------------------------|
D-|---5-7-----------------------------------5-5----------5-7--|
G-|-5-------------------------------------------7-5----5------|
A-|-------------------------------------------------7---------|
E-|-----------------------------------------------------------|
e-|------------------------------------------------------------------|
B-|------------5-h6-5------------------------------------5-h6-5------|
D-|------5------------7-------5----------5-7-------5------------7-5--|
G-|----5---7-5--------------5---7-5----5---------5---7-5-------------|
A-|-7--------------------7----------7---------7----------------------|
E-|------------------------------------------------------------------|


Chorus

3.
Ma kog' me boga za tebe pitaju
I suze mi na oci tjeraju
I strasno mrzim Romea i Juliju
Sve mi stvari smrde na prevaru

Important: The song above is NOT stored on the Chordie server. The original song is hosted at www.guitaretab.com. Chordie works as a search engine and provides on-the-fly formatting. Chordie does not index songs against artists'/composers' will. To remove this song please click here.

Text color:
Chord color:
Chord grids: 
Font size:    
Page size: 

Am C Fadd9 G G/B G7/B
variations - click chord images

Login - add to songbook

Transpose chords

Tuning

Rating click stars to rate

Layout
Accuracy

SHARE PAGE  




You need to log in to post comments