Guitar Tabs, Chords and Lyrics


Your Love   Prodigy



e|-5--4--4--4--4--4--6--6---6----------------------|
B|-5--5--5--5--5--5--7--7---7--7---7----7---7------|
G|-6--6--6--6--6--6--6--6---6--8---8----8---8------|
D|-----------------------------9---9----9---9------|
A|-------------------------------------------------|
E|-------------------------------------------------|

THIS IS PLAYED IN THE BACKGROUND AND SOMETIMES SOLO

e|------------------------------------------------------|
B|------------------------------------------------------|
G|------------------------------------------------------|
D|------------------------------------------------------|
A|----------------------------0----0-----2----2----2----|
E|--2---2----2---2----2---------------------------------|

e|----------------------------------------------|
B|----------------------------------------------|
G|----------------------------------------------|
D|----------------------------------------------|
A|------------------------0---0------2----------|


Important: The song above is NOT stored on the Chordie server. The original song is hosted at www.guitaretab.com. Chordie works as a search engine and provides on-the-fly formatting. Chordie does not index songs against artists'/composers' will. To remove this song please click here.

This song is displayed as text-only. Transposing and tuning is only available for chordpro-songs.

Login - add to songbook

Rating click stars to rate

Layout
Accuracy

SHARE PAGE  




You need to log in to post comments