Haillie Sellasse Up Your Ass

Propagandhi

|---------------|----------------|---------------|----------------|

|---------------|----------------|---------------|----------------|
|-----------4-5-|---(2)------5-4-|-----------4-5-|---(2)------5-4-|
|---7----5--4-5-|----3----5--5-4-|---7----5--4-5-|----3----5--5-4-|
|---7----5--2-3-|----3----5--3-2-|---7----5--2-3-|----3----5--3-2-|
|---5----3------|----1----3------|---5----3------|----1----3------|

 A5G5B5C5FG5C5B5A5G5B5C5FC5B5
                                                           Gtr II   
|-3-|
E Q. Q E E E Q. Q E E E Q. Q E E E Q. S S S E E E
|---------------|----------------|---------------|-----------------------|
|---------------|----------------|---------------|-----------------------|
|-----------4-5-|---(2)------5-4-|-----------4-5-|---(2)---5-5-5-5-4-----|
|---7----5--4-5-|----3----5--5-4-|---7----5--4-5-|----3----5-5-5-5-4-----|
|---7----5--2-3-|----3----5--3-2-|---7----5--2-3-|----3----3-3-3-3-2-----|
|---5----3------|----1----3------|---5----3------|----1------------------|


Verse
 A5/EGC5/GD5/A
    Gtr III                      
 EEEEEEEEEEEEEEEE
||----5---5---3---3-|---1---1---3---3---|
||o---5---5---3---3-|---1---1---3---3---|
||----5---5---4---4-|---2---2---4---4---|
||------------------|-------------------|
||o-----------------|-------------------|
||------------------|-------------------|


 A5/EGC5/GD5/A
  E E E E E E E E   E E E E E  E E  E   3x
|---5---5---3---3-|---1---1---3---3-----||
|---5---5---3---3-|---1---1---3---3----o||
|---5---5---4---4-|---2---2---4---4-----||
|-----------------|---------------------||
|-----------------|--------------------o||
|-----------------|---------------------||


Interlude
 AmG5B5AmG5A5
    S S S E S S S S S S S S S E   S S S E S S S S S E S S E
||------------------------------|----------------------------||
||o-----------------------------|-------------------------5-o||
||--------5-------------------4-|-------5--------------------||
||------7---7---------5-----4---|-----7---7---------5--------||
||o---7-------7-----5---2-2-----|---7-------7-----5-----7---o||
||--5-----------3-3-------------|-5-----------3-3-----5------||


Verse
 A5/EGC5/GD5/A
    Gtr III                      
 EEEEEEEEEEEEEEEE
||----5---5---3---3-|---1---1---3---3---|
||o---5---5---3---3-|---1---1---3---3---|
||----5---5---4---4-|---2---2---4---4---|
||------------------|-------------------|
||o-----------------|-------------------|
||------------------|-------------------|


 A5/EGC5/GD5/A
  E E E E E E E E   E E E E E  E E  E   3x
|---5---5---3---3-|---1---1---3---3-----||
|---5---5---3---3-|---1---1---3---3----o||
|---5---5---4---4-|---2---2---4---4-----||
|-----------------|---------------------||
|-----------------|--------------------o||
|-----------------|---------------------||


Interlude
 AmG5B5AmG5A5
    S S S E S S S S S S S S S E   S S S E S S S S S E S S E
||------------------------------|----------------------------||
||o-----------------------------|-------------------------5-o||
||--------5-------------------4-|-------5--------------------||
||------7---7---------5-----4---|-----7---7---------5--------||
||o---7-------7-----5---2-2-----|---7-------7-----5-----7---o||
||--5-----------3-3-------------|-5-----------3-3-----5------||


Thats about all i got. I don't have the solo.


A5 A5/E Am B5 C5 C5/G D5/A E F G G5
variations - click chord images
Transpose chords:
Tuning:
Cool service:
View: Size:
A  A  A
Rating:
Layout:
  • Currently 3.3/5 Stars.
  • 1
  • 2
  • 3
  • 4
  • 5
 
Accuracy:
  • Currently 3.6/5 Stars.
  • 1
  • 2
  • 3
  • 4
  • 5
 
click stars to rate
Chordie recommends:
Check out JamPlay.com for online video guitar lessons
Songbook:
Login to add this song to your songbook
Support the artist
Preview/buy this song
MSN Music
Why this non-profit ad?

 
login to add comments/video/corrections