eToCache5 = ""; ?> 5th Commandment by Protest The Hero - guitar chords, guitar tabs and lyrics - chordie

5th Commandment

Protest The Hero

-------

]-------------------------------|
]---------x4---x4---------------|
]---x4--7-----9-------x2----x2--|
]--4----7-----9-----7-----6-----|
]--4----5-----7-----7-----6-----|
]--2----------------5-----4-----|
]-------------------------------|
]---------x4---x4---------------|
]---x4--7-----9-------x2----x2--|
]--4----7-----9-----7-----6-----|
]--4----5-----7-----7-----6-----|
]--2----------------5-----4-----|
]---------------------------------------------|
]---------x4---x4-----------------------------|
]---x4--7-----9-------x2----x2----------------|
]--4----7-----9-----7-----6-----4-------------|
]--4----5-----7-----7-----6-----4(pick scrap)-|
]--2----------------5-----4-----2-------------|
]--------10-9-------------10-9-----------------|
]-7-7-7--------10--------------10--------------|
]------------------7-7-7-----------------------|
]----------------------------------------------|
]----------------------------------------------|
]----------------------------------------------|
]--------10-9-7-9-10-9-7-9-7-------------------|
]----------------------------------------------|
]-9-9-9----------------------------------------|
]----------------------------------------------| x2
]----------------------------------------------|
]----------------------------------------------|
]-------------------------------|
]---------x8--------------------|
]-------7-----9-------x4----x4--|
]--4----7-----9-----7-----6-----|
]--4----5-----7-----7-----6-----|
]--2----------------5-----4-----|
]-------------------------------|
]---------x8----x8--------------|
]-------7-----9-------x4----x4--|
]--4----7-----9-----7-----6-----|
]--4----5-----7-----7-----6-----|
]--2----------------5-----4-----|
]-------------------------------|
]---------x8----x8--------------|
]---x8--7-----9-------x4----x4--|
]--4----7-----9-----7-----6-----|
]--4----5-----7-----7-----6-----|
]--2----------------5-----4-----|
]---------------------------------|
]---------x8----x8----------------|
]---x8--7-----9-------x4----x4----|
]--4----7-----9-----7-----6-----4-|
]--4----5-----7-----7-----6-----4-|
]--2----------------5-----4-----2-|
]-------|
]-------|
]---5---|

 DEAAbF#E
 can't take your holy war          

 DEAAbF#E
 tired of your bull*** I can't take it anymore            

D E f*** you!

(1:11)
 F#DADEDA
 F# (pick scrap)

CHORUS
]-----------------------|
]--------x8---------x8--|
]---x8--7------x8--9----|
]--4----7-----7----9----| x2
]--4----5-----7----7----|
]--2----------5---------|


what the hell are we fighting for...?
(1:26)
]--x6--x2---x8---x4---x4---x4--x4-|
]-7---9---10---12---10---14---12--|
]-6---8---9----11---9----13---11--|  x2
]-4---6---7----9----7----11---9---|
]---------------------------------|
]---------------------------------|


(1:44)
]-----------------------------------------------------------|
]-----------------~~--------~~--~~----~~-----~~-----~~-~~---|
]-----------11-11-11--11-11-11--11-11/14--14/16--16/1816----|
]--4---4----x--x--x---x--x--x---x--x---x---x------x--x--x---|
]--4---4----9--9--9---9--9--9---9--9-/12--12/14--14/1614----|
]--2---2----------------------------------------------------|


VERSE part 1

thou shall not...
]-------------------------------|
]---------x8---x8---------------|
]-------7-----9-------x4----x4--|
]--4----7-----9-----7-----6-----|
]--4----5-----7-----7-----6-----|
]--2----------------5-----4-----|


thou shall not...
]---------------------------------|
]---------x8----x8----------------|
]---x8--7-----9-------x4----x4----|
]--4----7-----9-----7-----6-----4-|
]--4----5-----7-----7-----6-----4-|
]--2----------------5-----4-----2-|
]-------|
]-------|

)-7---9-|
)-7-7-9-|(pick scrap)
)-5-7-7-|
]---5---|


VERSE part 2
 DEAAbF#E
 can't take your holy war          

 DEAAbF#E
 tired of your bull*** I can't take it anymore            


 F#DADEDA
CHORUS
]-----------------------|
]--------x8---------x8--|
]---x8--7------x8--9----|
]--4----7-----7----9----| x2
]--4----5-----7----7----|
]--2----------5---------|


F# (faster)
D,A,D,E,D,A x3
 F#F#
----------

http://protestthehero.kicks-ass.net/protestthehero
www.protestthehero.com


A Ab D E F#
variations - click chord images
Transpose chords:
Tuning:
Cool service:
View: Size:
A  A  A
Rating:
Layout:
  • Currently 0/5 Stars.
  • 1
  • 2
  • 3
  • 4
  • 5
 
Accuracy:
  • Currently 0/5 Stars.
  • 1
  • 2
  • 3
  • 4
  • 5
 
click stars to rate
Chordie recommends:
Learn to play guitar with video-based, online guitar lessons at JamPlay.com
Songbook:
Login to add this song to your songbook
Support the artist
Preview/buy this song
MSN Music
Why this non-profit ad?

 
login to add comments/video/corrections