Chordie logo


I Detest   Protest The Hero



-------------------------------------------------------------------------------
			     I Detest - Protest The Hero
-------------------------------------------------------------------------------
Tabbed by: Jake Parrott
Email: rollingstonesfan101@hotmail.com

Tuning:Standard

Kay, this is only the intro, and I'm not sure if it's in the right key. This part has a
rhythm, so you'll have to figure it out. It's not that hard.

e|---------------------------------------------------------------------------|
B|---------------------------------------------------------------------------|
G|12-99-99-11-999-12-99-99-12-999-11-99-99-11--------------------------------|
D|9--99-99-9--999-9--99-99-9--999-9--99-99-9---------------------------------|
A|7--77-77-7--777-7--77-77-7--777-7--77-77-7---------------------------------|
E|---------------------------------------------------------------------------|

e|---------------------------------------------------------------------------|
B|---------------------------------------------------------------------------|
G|555555555555555555555555---x5----------------------------------------------|
D|555555555555555555555555---x5----------------------------------------------|
A|333333333333333333333333---x5----------------------------------------------|
E|---------------------------------------------------------------------------|

E|---------------------------------------------------------------------------|

e|---------------------------------------------------------------------------|
B|---------------------------------------------------------------------------|
G|12-99-99-111111121212------------------------------------------------------|
D|9--99-99-9-9-9-9-9-9-------------------------------------------------------|
A|7--77-77-7-7-7-7-7-7-------------------------------------------------------|
E|---------------------------------------------------------------------------|

| /  slide up
| \  slide down
| h  hammer-on
| p  pull-off
| ~  vibrato
| +  harmonic
| x  Mute note


Important: The song above is NOT stored on the Chordie server. The original song is hosted at www.guitaretab.com. Chordie works as a search engine and provides on-the-fly formatting. Chordie does not index songs against artists/composers will. To remove this song please click here.

This song is displayed as text-only. Transposing and tuning is only available for chordpro-songs.

Login - add to songbook

Rating click stars to rate

Layout
Accuracy

SHARE PAGE  




You need to log in to post comments