She Hates Me

Puddle Of Mudd

 EADGBE
                 F  | 1 3 3 2 x x
Bb5| x 1 3 3 x x
G | 3 5 5 4 x x
C5 | x 3 5 5 x x
(0:00-1:01) Intro/Verse Part 1/Chorus 1 (guitar 1, clean)
 FBb5GC5
E|-------------------|--------------------------|
B|-------------------|--------------------------|
G|----2--------3-----|-----4----------------5---|
D|----3--------3-----|-----5----------------5---|
A|----3----0-1-----0-|--5--5---0--3------3-----0|
E|-1-----------------|--3-----------------------|

(1:01-1:19) Verse 2 (clean)
 FBb5GC5
E|------------------------------------|
B|------------------------------------|
G|---------3-3-3-3----------5-5-5-5-5-|
D|3-3-3-3--3-3-3-3---5-5-5--5-5-5-5-5-|
A|3-3-3-3--1-1-1-1---5-5-5--3-3-3-3-3-|
E|1-1-1-1------------3-3-3------------|

Just palm mute this riff and release the
mute as you go into the chorus..
(1:19-1:36) Verse 2 (continued, medium overdrive)
 FBb5GC5
E|------------------------------------|
B|------------------------------------|
G|---------3-3-3-3----------5-5-5-5-5-|
D|3-3-3-3--3-3-3-3---5-5-5--5-5-5-5-5-|
A|3-3-3-3--1-1-1-1---5-5-5--3-3-3-3-3-|
E|1-1-1-1------------3-3-3------------|

(1:36-1:53) Chorus (heavier overdrive)
 FBb5GC5
E|------------------------------------|
B|------------------------------------|
G|---------3-3-3-3----------5-5-5-5-5-|
D|3-3-3-3--3-3-3-3---5-5-5--5-5-5-5-5-|
A|3-3-3-3--1-1-1-1---5-5-5--3-3-3-3-3-|
E|1-1-1-1------------3-3-3------------|

(1:53-2:11) Solo (overdrive, sounds like wah-wah for the effects...)
E|-------------------------------------|----------------------------------------|
B|-------------------------------------|----------------------------------------|
G|----------3-3-3-3----3---3----5b7r---|------------3-3-3-3--4-4-4-5----5b7r/14-|
D|-3-3-3-3-----------5---5-------------|---3-3-3-3------------------------------|
A|-------------------------------------|----------------------------------------|
E|-------------------------------------|----------------------------------------|
E|-------------------------------------------------------------------|
B|-------------------------------------|-----------------------------|
G|----------3-3-3-3----3---3----5-5----|--------------3---3-----5b7--|
D|-3-3-3-3-----------5---5-------------|---3-3-3-3--5---5------------|
A|-------------------------------------|-----------------------------|
E|-------------------------------------|-----------------------------|    

Play the last note about 6 times, and gradually bend it a little more
each time until you have the pitch of the 7th fret...
(2:11-2:15) No guitar...
(2:15-3:03) Verse 3/Outro (clean)
 FBb5GC5
E|-------------------|--------------------------|
B|-------------------|--------------------------|
G|----2--------3-----|-----4----------------5---|
D|----3--------3-----|-----5----------------5---|
A|----3----0-1-----0-|--5--5---0--3------3-----0|
E|-1-----------------|--3-----------------------|

(3:03-3:09) Let your guitar fade out...
You don't really need the next part because it just plays over the Puddle Of Mudd guys talking and laughing, and if you're gonna play play it in a band then you probably won't include that part when you play it. However, if you want to play it like on the CD, then here it is:
(3:09-3:29) Extra Outro (overdrive, left panned guitar, treble tone at
full, bass tone at '0')
 FBb5GC5
E|------------------------------------|
B|------------------------------------|
G|---------3-3-3-3----------5-5-5-5-5-|
D|3-3-3-3--3-3-3-3---5-5-5--5-5-5-5-5-|
A|3-3-3-3--1-1-1-1---5-5-5--3-3-3-3-3-|
E|1-1-1-1------------3-3-3------------|

So basically, there's only 4 chords in the whole song. If you're only just learning to play the guitar, then the picking on the intro *might* need a little
practise, but on the whole it's damned easy...
I think it's at least 95% accurate, but as I said earlier, if you have any corrections (or parts for the second guitar) that you want to tell me about,
then please by all means post them in 'Corrections'. Cheers...
I won't post the lyrics, I typed them all up but my PC crashed and I hadn't had time to save them, so I'm a bit peeved to say the least... if you can't work them out then
they're easy enough to find if you search on 'Google', or again you can e-mail me...
That's about it, hope you enjoy it, and thanks for your time!







A B Bb5 C5 D E F G
variations - click chord images
Transpose chords:
Tuning:
Cool service:
View: Size:
A  A  A
Rating:
Layout:
  • Currently 2.5/5 Stars.
  • 1
  • 2
  • 3
  • 4
  • 5
 
Accuracy:
  • Currently 2/5 Stars.
  • 1
  • 2
  • 3
  • 4
  • 5
 
click stars to rate
Chordie recommends:
Get acoustic guitar lessons and electric guitar lessons at JamPlay.com
Songbook:
Login to add this song to your songbook
Support the artist
Preview/buy this song
MSN Music
Why this non-profit ad?

 
login to add comments/video/corrections