Chordie logo

World   Punchline



----------------------------------------------------------------------------
                          Punchline - The World
                               Action(2004)
----------------------------------------------------------------------------

credit to  for tabbing

eric
ug: JesseLaceyIsGod
email: ilikesubs123@aol.com


tuning: eBGDAE(standard)

intro
guitar 1 x's 4
e |--------------------------------------------|
b |-3/5-3----------3-5-3---3/5-3----------3-5--|
g |---------5-0-5------------------5-0-5-------|
d |--------------------------------------------|
a |--------------------------------------------|
E |--------------------------------------------|


Alternate riff for guitar 1. There all the same notes
so it'll still sound the same. This one should sound
more accurate cause I added the slide's.
e |----------------------------------------|
b |----------------------------------------|
g |-7/9-7--5-0-5--7-9-7--7/9-7--5-0-5--7-9-|
d |----------------------------------------|
a |----------------------------------------|
E |----------------------------------------|

guitar 2
e |------------------------------|
b |------------------------------|
g |--5-5-------------------------|
d |--5-5--2-3-7-2-3-55-----------|
a |--3-3--2-3-7-2-3-55-----------|
E |-------0-1-5-0-1-33-----------|
2nd guitar repeats this 4 times during the intro


verse x's 2
e |----------------------|
b |----------------------|
g |---5-----7------------|
d |---5--7--7--5---------|
a |---3--7--5--5---------|
E |------5-----3---------|


pre chorus
e |-------------------|------------------|
b |-------------------|------------------|
g |-------------------|------------------|
d |---3-3-3/7-7-7-7---|-----5-5-5-5-5----|
a |---3-3-3/7-7-7-7---|-----5-5-5-5-5----|
E |---1-1-1/5-5-5-5---|-----3-3-3-3-3----|
repeat 3 times then play that G power chord on the 3rd time 


chorus

Guitar 1

e |------------------------------------------------------|
b |------------------------------------------------------|
g |------5--22-2-22-2-2-2--------------------5-----------|
d |---3--5--22-2-22-2-2-2--55-5-55-5-5-5--3--5--7--3--5--|
a |---3--3--00-0-00-0-0-0--55-5-55-5-5-3--3--3--7--3--5--|
E |---1--------------------33-3-33-3-3-3--1-----5--1--3--| 
** ** * ** ** *
Guitar 2

Starts when the first palm muting starts
e |-----------------------------------|
b |------------------33-3-3-3h5p3-----|
g |---55-5-55-5-5-5--44-4-4-4h5p4-5~--|
d |---55-5-55-5-5-5---------------5~--|
a |-----------------------------------|
E |-----------------------------------|
** ** * ** *
Bridge

e |-------------------|------------------|
b |-------------------|------------------|
g |-------------------|------------------|
d |---3-3-3/7-7-7-7---|-----5-5-5-5-5----|
a |---3-3-3/7-7-7-7---|-----5-5-5-5-5----|
E |---1-1-1/5-5-5-5---|-----3-3-3-3-3----|
repeat 3 times then play that G power chord on the 3rd time 



e |---------|
b |---------|
g |----5----|
d |----2----|
a |----3----|
E |---------|
Im not sure if this whats being
strummed but it sounds close.


Acoustic part x's 2
e |------------------|
b |------------------|
g |----5-----7-------|
d |----5--7--7--3----|
a |----3--7--5--3----|
E |-------5-----1----|


2nd chorus
e |-----------------------------------|

b |-----------------------------------|
g |------5-------------5--------------|
d |---3--5--7--5----3--5--7--3--5-----|
a |---3--3--7--5----3--3--7--3--5-----|
E |---1-----5--3----1-----5--1--3-----|


repeat Intro here


e |-------------------------------------------|
b |-------------------------------------------|
g |--------5~~~----10~~~---------9--12--------|
d |-3~~~---5~~~----10~~~-----10---------10----|
a |-3~~~---3~~~----8~~~~----------------------|
E |-1~~~--------------------------------------|
"Congratulations I guess your always right...
e |-------------------------------------------------|
b |-----------------------------3-5-3---------------|
g |-10~~~--9-~~~--9-~~~--12~~~--4-5-4-4-5~~~--------|
d |-10~~~--10~~~--10~~~--12~~~--------5-7~~~-7/5~~~-|
a |-8-~~~--7-~~~--7-~~~--10~~~----------------------|
E |-------------------------------------------------|

e |----------------------|
b |----------------------|
g |------------5---------|
d |---7--5--3--5--7--5---|
a |---7--5--3--3--7--5---|
E |---5--3--1-----5--3---|

Bridge 2

e |----------------------------------------|
b |----------------------------------------|
g |----5555-5------------------------------|
d |----5555-5-2222-5-7777-7-5-55-5-55-55---|
a |----3333-3-2222-5-7777-7-5-55-5-55-55---|
E |-----------0000-3-5555-5-3-33-3-33-33---|
** **
After this, play the Chorus, but palm muted.

Outro

Guitar 1
e |-------------------------------------------|
b |-------------------------------------------|
g |----55-5-5-555-5-5-555-5-5-555-5-5-5-------|
d |----55-5-5-555-5-5-555-5-5-566-6-6-6--x's-2|
a |----33-3-3-333-3-3-333-3-3-333-3-3-3-------|
E |-------------------------------------------|


Important: The song above is NOT stored on the Chordie server. The original song is hosted at www.guitaretab.com. Chordie works as a search engine and provides on-the-fly formatting. Chordie does not index songs against artists/composers will. To remove this song please click here.

This song is displayed as text-only. Transposing and tuning is only available for chordpro-songs.

Login - add to songbook

Rating click stars to rate

Layout
Accuracy

SHARE PAGE  

You need to log in to post comments