Guitar Tabs, Chords and Lyrics


Aca Toro  Punkreas

         [Dm]        [Bb]                                                                 
|----------------------|
|-------10-------------|
|----10----------------| x6
|-12-------------------|
|----------------------|
|----------------------|


         [Dm]              [Bb]             [Dm]              [G]                               
|---------------------------------------------------------|
|-------10-------13--11------------10---10-10-------------|
|----10-------------------------10------------12-12-------|
|-12-------------------------12---------------------------|
|---------------------------------------------------------|
|---------------------------------------------------------|


         [Dm]              [Bb]       [F]                        [C]                           
|------------------------------------------------------------------------|
|-------10-------13--11------13--13-15---13--13-15---13--13-15---13--13--|
|----10------------------------14----------14----------14----------14----|
|-12---------------------------------------------------------------------|
|------------------------------------------------------------------------|
|------------------------------------------------------------------------|

[Dm]Macabra festa in quel dell'[Bb]arena di Spagna
[Dm]Sadismo e perversione, un [G]cumulo di grida
[Dm]bc'è anche il re seduto in[B]sieme alla sua cagna
[F]Si apprestano a guardare ciò che ch[C]iamano corrida
[Dm]Ci sono sotto dei cont[Bb]ratti da milioni
[Dm]E per lo stato è un ev[G]ento nazionale
[Dm]E affluiscono migl[Bb]iaia di coglioni
[F]Non si riesce più a capire ch[C]i è l'uomo e l'animale e allora
CHORUS:
[Dm]Aca toro, [Bb]aca toro! [F]   [C]
[Dm]Aca toro, [Bb]aca toro! [F]   [C]
[Dm]Aca toro, [Bb]aca toro! [F](el vangel del bo[C]ro-boro)
[Dm]Mata tu to[Bb]reador  [F]   [C]

ripetere l'INTRO

[Dm]Per loro ciò vuol dire[Bb] rose rosse e baci
[Dm]Per noi son solamente [G]tanti macellai
[Dm]Ma tu sei ancora p[Bb]eggio perchè guardi e taci
E[F] credi che comunque prima o p[C]oi non pagherai!
A[Dm]ca toro, a[Bb]ca toro!  [F]   [C]
[Dm]Aca toro, [Bb]aca toro! [F]   [C]
[Dm]Aca toro, [Bb]aca toro! [F](el vangel del bo[C]ro-boro)
[Dm]Mata tu to[Bb]reador  [F]   [C]

Bridge: (nota: qui cambia il ritmo delle pennate)
Dm A Dm Bb (x3)
Dm A Bb C (il ritmo torna quello di prima)
[F]E tutti insieme attend[C]iamo la giornata
[Dm]e per il toro sia la gr[Bb]an rivoluzione
[F]Dita incrociate aspett[C]ando l'incornata
[Dm]Addio Toreador, e in c[Bb]ulo alla naz[C]ione!
Poi si ripetono parti che ho già tabbato... perdonatemi se non le trascrivo!

SOLO:
|----9/10-10-10-10---9/10-10-10-10---9/10-10-10-----------|
|----9/10-10-10-10---9/10-10-10-10---9/10-10-10-----------|
|----9/10-10-10-10---9/10-10-10-10---9/10-10-10-----------|
|-------------------------------------------------12------|
|---------------------------------------------------------|
|---------------------------------------------------------|
|----------------------------------------------|
|--10--12--------------------------------------|
|--10--12----10--------------------------------|
|-----------------12---------5-5-5-5-3---------|
|--------------------------------------5-------|
|----------------------------------------------|
|----------------------------------------------|
|----------------------------------------------|
|----------------------------------------------|
|--------3--5555--3-2--------3--5555--3-2------|
|---5555---------------5555--------------------|
|----------------------------------------------|
|----------------------------------------------|
|----------------------------------------------|
|-------------------------5-5------7b9r7-7-----|
|--------3--5555-----7-7------7-7--------------|
|---5555---------------------------------------|
|----------------------------------------------|
|-------------------------------------------------|
|-------------------------------------------------|
|---7p5---5--7---7b9--5------7/10--12-12-12-10----|
|-------7--------------------------------------12-|
|-------------------------------------------------|
|-------------------------------------------------|
|-------------------------------------------------|
|-------------------------------------------------|
|---7b9--5----7p5---5-7---7p5---5-7----7p5---5----|
|-----------------7-----------7------------7------|
|-------------------------------------------------|
|-------------------------------------------------|
|-------------------------------------------------|
|-----------6--------8--------10------------------|
|---7b9-----8b10-----10b12----12b14---------------|
|-------------------------------------------------|
|-------------------------------------------------|
|-------------------------------------------------|


Si ripete il bridge e si finisce con
|----------------------|
|-------10-------------|
|----10----------------|
|-12-------------------|
|----------------------|
|----------------------|				


Important: The song above is NOT stored on the Chordie server. The original song is hosted at www.guitaretab.com. Chordie works as a search engine and provides on-the-fly formatting. Chordie does not index songs against artists'/composers' will. To remove this song please click here.

Text color:
Chord color:
Chord grids: 
Font size:    
Page size: 

B Bb C Dm F G
variations - click chord images

Login - add to songbook

Transpose chords

Tuning

Rating click stars to rate

Layout
Accuracy

SHARE PAGE  




You need to log in to post comments