Guitar Tabs, Chords and Lyrics


Zingari  Punkreas

-------8-9-8-9---9-8-9---9-8-9-11-9-8-----------|


---------------8-------9------------------------|


------------------------------------------------|

------------------------------------------------|
------------------------------------------------|
------------------------------------------------|
------------------------------------------------------|
------------------------------------------------------|
------------------------------------------------------|
---9-9--5-5--7-7--9-8-7-6-5---------------------------|
---9-9--5-5--7-7--9-8-7-6-5---------------------------|
---7-7--3-3--5-5--7-6-5-4-3---------------------------|
[B-]chiudete le finestre s[G]barrate le persiane
[B-]pericolo in citt? di [A-]nuovo carovane
[B-]nomadi gittani c[G]on abiti sfarzosi
[B-]si vede a prima vista [A-]che son pericolosi
[B-]cara io [G]vado dai vicini [B-]tu chiudi con la chiave e[A-] porta su i bambini
[B-]se fanno i capricciosi e[G] non vogliono dormire
[B-]racconta che gli zingari l[A-]i vengono a rapire
Tra questa e l'altra strofa c'? il riff1.
La seconda strofa ? uguale fino al pezzo prima
del ritornello:

[B-]Conseguenza [G]fu la deport[A-]azione[A-]   [G#]
[B-]la violenza [G]la gran pers[A-]ecuzio[A-]ne [G#]
[B-]le bottiglie [G]lanciate ne[A-]lla nott[A-]e  [G#]
[B-]molti roghi [G]nessuno se ne [A]fotte

Nel ritornello cambia accompagnamento
e diventa un accompagnamento punk con
con powerchords e distorsione

-----------------------------------------------|
-----------------------------------------------|
-----------------------------------------------|
----9-9-9-9-9-9---5-5-5-5-5-5---7-7-7-7-7-7----|
----9-9-9-9-9-9---5-5-5-5-5-5---7-7-7-7-7-7----|
----7-7-7-7-7-7---3-3-3-3-3-3---5-5-5-5-5-5----|

"Girovagando per il mondo..."


Dopo il primo ritornello c'? il solo di chitarra

----9-8-9-11-9-8--------------------------------9-----9------------|
-----------------9-8--------------------8-8-9-9---8-----8----------|
---------------------9-8--------8-8-9-9-------------8-----7-8-7-8--|
-------------------------8-8-9-9-----------------------------------|
-------------------------------------------------------------------|
-------------------------------------------------------------------|


Tra il il penultimo e l'ultimo ritornello c'? uno stacco
dove si ripetono per due volte gli accordi del ritornello
senza voce.


nello stacco finale una chitarra fa la successione B- G B- A-
e l'altra questo

--------9-9-9-9-8-7-5-3-------9-9-9-9-8-7-5-3-5-7------------|
--7-7-7-----------------7-7-7---------------------7----------|
-------------------------------------------------------------|
-------------------------------------------------------------|
-------------------------------------------------------------|
-------------------------------------------------------------|


SPero che sia corretta perch? non ? stato facile tabbarla

per contatti gilumida@tin.it

tanti saluti da Mike

Important: The song above is NOT stored on the Chordie server. The original song is hosted at www.guitaretab.com. Chordie works as a search engine and provides on-the-fly formatting. Chordie does not index songs against artists'/composers' will. To remove this song please click here.

Text color:
Chord color:
Chord grids: 
Font size:    
Page size: 

A G G#
variations - click chord images

Login - add to songbook

Transpose chords

Tuning

Rating click stars to rate

Layout
Accuracy

SHARE PAGE  




You need to log in to post comments