Guitar Tabs, Chords and Lyrics


Nasaan Ka  Pupil

-------------------------------------------------------------------------------



-------------------------------------------------------------------------------

[D]Kaninang umaga...
[F#]Nagising ako...
[A]May bakas ng ngiti sa mukha'...
[D]Kasama kita sa a[F#]king panaginip...
Sasa[A]bihin ko dapat sayo...pero
Chorus:
[D]Wala ka [A]na...
[D]Wala ka n[B]a pal[A]a...
[D]Wala ka n[F#]a... [A]


Verse 2: (Guitar 2)with the whole verse 2!
D                           --15-15-15-----------------------|
Nanlilisik...               -----------16-16-16-16-----------|
  F#            A           ---------------------------------| (12x)
Namimilipit sa galit...     ---------------------------------|
  D          F#             ---------------------------------|
Umiikot ang aking           ---------------------------------|

Paningin sa mga[A] tanong na di kayang sagutin...

[D]Di na makikita...
Di [F#]na mahawakan...
[A]Ang maganda mong mukha...pagkat...

(Repeat Chorus)

Bridge:
[Bb]   [Eb]Nas-[Db]an [E#]ka?

[B]   [E]Na-[D]san [A-G]ka?...
   Nawal[A]a lang p[G]arang bula...

(Hindi po ito sabay-sabay, sunod-sunod po...)
(Guitar 2)
 -----------------------|
 -----------------------|
 ------0-0-----7-7------| (4x)
 --0-0-----0-0----------|
 -----------------------|
 -----------------------|


(Guitar 1)
 ---------------------------------------------------------------------------|
 ---------------------------------------------------------------------------|
 --7-6-7-6-7-6-7-6-----------------9-9-9-9-9-9-9-9--11-11-11-11-11-11-11-11-|
 ------------------7-7-7-7-7-7-7-7------------------------------------------|
 ---------------------------------------------------------------------------|
 ---------------------------------------------------------------------------|
 |---------------------------------------------------|
 |---------------------------------------------------|
 |----9--11------9--11----------9--11-11s12-11-9-7---|
 |--7------7---7------7-5-4---7--------------------7-|
 |---------------------------------------------------|
 |---------------------------------------------------|

(wala ka na...wala ka pala...wala ka na...)


 |------------------------------|
 |------------------------------|
 |-------4-----------4-0--------| (2x)
 |-0-4-5-----0-0-4-5------------|
 |------------------------------|
 |------------------------------|
 |-11-11-11--10-10-10--13-13-13---------------------|
 |------------------------------11-11-11--11h13--8--|
 |--------------------------------------------------| (2x)
 |--------------------------------------------------|
 |--------------------------------------------------|
 |--------------------------------------------------|


   [D]         [B]                [A]                                                         
 |--2h3-2-----------------|--2h3-2------------------|
 |--------3-------3-3-----|--------3-------3--------|
 |----------2-2h3---------|----------2-2h3---3-2----| (2x)
 |------------------------|-------------------------|
 |------------------------|-------------------------|
 |------------------------|-------------------------|

mahahanap din kita..........(2x)

  [D]          [B]                                                                         
 |--15h16-15-----------------------|--15h16-15-----------------------|
 |-----------16----------16-16-----|-----------16----------16--------|
 |--------------15-15h16-----------|--------------15-15h16----16-15--| (4x)
 |---------------------------------|---------------------------------|
 |---------------------------------|---------------------------------|
 |---------------------------------|---------------------------------|

mahahanap din kita........... (4x)

 Outro: D---E---D

Ahhhhh.......


Paki rate na lng po or paki-comment para malaman kung may suggestions...
Tabbed by KEVIN STEVENS of Bulacan...
Pupil ROCKS!!! Cueshe' SUCKS!!!

Important: The song above is NOT stored on the Chordie server. The original song is hosted at www.guitaretab.com. Chordie works as a search engine and provides on-the-fly formatting. Chordie does not index songs against artists'/composers' will. To remove this song please click here.

Text color:
Chord color:
Chord grids: 
Font size:    
Page size: 

A B Bb D Db E Eb F# G
variations - click chord images

Login - add to songbook

Transpose chords

Tuning

Rating click stars to rate

Layout
Accuracy

SHARE PAGE  




You need to log in to post comments