Guitar Tabs, Chords and Lyrics


gamo   Pupil



title:gamu gamo
artist:pupil
album:beautiful machine
tabbed:kurt dela rosa
tunning:drop D

intro:
e|------------------------------|
b|------------------------------|
G|------------------------------|
D|----7777777---6666666---------|2X
A|----5555555---4444444---------|
D|------------------------------|

e|-------------------------|  |-----------|
b|-------------------------|  |-----------|
G|-------------------------|  |-----------|
D|-------------------------|2X|-----------|
A|---00-2h3-00-000-2h3-00--|  |--000000---|
D|---00-2h3-00-000-2h3-00--|  |--000000---|

verse1:
e|------------------------------|
b|------------------------------|
G|------------------------------|
D|----7777777---6666666---------|2X
A|----5555555---4444444---------|
D|------------------------------|
=tulad mo isang gamu gamo....
e|------------------------------------------|
b|------------------------------------------|
G|------------------------------------------|
D|--55-----99-----55-----44-----55-----77---|
A|--55-----99-----55-----44-----55-----77---|
D|--55-----99-----55-----44-----55-----77---|
='di ka mapipigilan...
[tpos may pickslide]

verse2:
e|------------------------------|
b|------------------------------|
G|------------------------------|
D|----7777777---6666666---------|2X
A|----5555555---4444444---------|
D|------------------------------|
=libo-libong mga taong katulad mo...

e|------------------------------------------|
b|------------------------------------------|
G|------------------------------------------|
D|--55-----99-----55-----44-----55-----77---|
A|--55-----99-----55-----44-----55-----77---|
D|--55-----99-----55-----44-----55-----77---|
='di kita mahawakan...

interlude:
e|-------------------------|
b|-------------------------|
G|-----7----7h9-7----------|4X
D|--00---00----------------|
A|-------------------------|
D|-------------------------|

e|------------------------------------------------------------|
b|------------------------------------------------------------|
G|---------------11----------------11/12----------------14p---|
D|---------------10----------------11/12----------------13p---|
A|--00-2h3-0----------00-2h3-0-------------00-2h3-0-----------|
D|--00-2h3-0----------00-2h3-0-------------00-2h3-0-----------|

chorus:
rhythm:
e|---------------------------------------------|   |----------|
b|---------------------------------------------|   |----------|
G|---------------------------------------------|   |----------|
D|----7777777-7777777--4444444-4444444---------|4X |--5555555-|
A|----5555555-5555555--2222222-2222222---------|   |--5555555-|
D|---------------------------------------------|   |--5555555-|
=at kung pagbibigyan...
lead:
e|-------------------|   |------------------|
b|-------------------|   |------------------|
G|------7----7h9-7---|2X |-----11----11h12--|2x
D|---00---00---------|   |--99----99--------|
A|-------------------|   |------------------|
D|-------------------|   |------------------|
[4x gagawin yan]

adlib:
e|--------------------------------|
b|--------------------------------|
G|--------------------------------|
D|----44444/7777777----5555555----|2X
A|----22222/5555555----5555555----|
D|---------------------5555555----|

e|--------------------------------|
b|--------------------------------|
G|--------------------------------|
D|----44444/7777777----5555555----|2X
A|----22222/5555555----5555555----|
D|---------------------5555555----|
[inulit lng pero my lead ng ksama
sliding tube ang gagamitin]

e|------------------------------------------|
b|------------------------------------------|
G|------------------------------------------|
D|--55-----99-----55-----44-----55-----77---|
A|--55-----99-----55-----44-----55-----77---|
D|--55-----99-----55-----44-----55-----77---|
='di kita titigilan...
rhythm:
e|---------------------------------------------|   |----------|
b|---------------------------------------------|   |----------|
G|---------------------------------------------|   |----------|
D|----7777777-7777777--4444444-4444444---------|4X |--5555555-|
A|----5555555-5555555--2222222-2222222---------|   |--5555555-|
D|---------------------------------------------|   |--5555555-|
=at kung pagbibigyan......
lead:
e|-------------------|   |------------------|
b|-------------------|   |------------------|
G|------7----7h9-7---|2X |-----11----11h12--|2x
D|---00---00---------|   |--99----99--------|
A|-------------------|   |------------------|
D|-------------------|   |------------------|
[4x gagawin yan]

e|-------------------------|  |-----------|
b|-------------------------|  |-----------|
G|-------------------------|  |-----------|
D|-------------------------|2X|-----------|
A|---00-2h3-00-000-2h3-00--|  |--000000---|
D|---00-2h3-00-000-2h3-00--|  |--000000---|


Important: The song above is NOT stored on the Chordie server. The original song is hosted at www.guitaretab.com. Chordie works as a search engine and provides on-the-fly formatting. Chordie does not index songs against artists'/composers' will. To remove this song please click here.

This song is displayed as text-only. Transposing and tuning is only available for chordpro-songs.

Login - add to songbook

Rating click stars to rate

Layout
Accuracy

Jango Player

SHARE PAGE  




You need to log in to post comments