Guitar Tabs, Chords and Lyrics


Abenteuerland   Pur



Intro Abenteuerland

e -------------------------------------------------------------------------|
b -------------------------------------------------------------------------|
g ----/9-------------------------------------------------------------------|
d ------------10--------7------7---9---7-----------------------------------|
A ---------------------------------------------10----7-----------7---------|
E ---------------------------------------------------------10--------------|

e --------------------------------------------------------------------------|
b --------------------------------------------------------------------------|
g --------------------------------------------------------------------------|
d ----10-----7---7--9--7----------------------------------------------------|
A --------------------------------10----------------------------------------|
E --------------------------------------------------------------------------|

e ----------------------------------------------------------------------------|
b ----------------------------------------------------------------------------|
g ----------------------------------------8----7--5--7--5---------------------|
d ----------------------------------------------------------------------------|
A --7----------7----10---7----------------------------------------------------|


Important: The song above is NOT stored on the Chordie server. The original song is hosted at www.guitaretab.com. Chordie works as a search engine and provides on-the-fly formatting. Chordie does not index songs against artists'/composers' will. To remove this song please click here.

This song is displayed as text-only. Transposing and tuning is only available for chordpro-songs.

Login - add to songbook

Rating click stars to rate

Layout
Accuracy

SHARE PAGE  




You need to log in to post comments