E--------------------------------------------------------|

B--------------------------------------------------------|
G--------------------9-11-9------------------------------|
D------7-7--9-7-9/11--------11-9-7-----7-7--9-7-9/11-9-9-|
A--7-9-----------------------------7-9-------------------|
E--------------------------------------------------------|
E------------------------------------------------------------------|
B-------------------------10--10--10-------------------------------|
G--------------------9-11---11--11--11-9-11-9--9--9-11-9-11--------|
D------7-7--9-7-9/11----------------------------------------11-9-7-|
A--7-9-------------------------------------------------------------|
E------------------------------------------------------------------|
E-----------------|
B--(13)b14-12-10--|
G-----------------|
D-----------------|
A-----------------|
E-----------------|

 AGDAGD
E-------------------------------------------------------------|
B-------------------------------------------------------------|
G----------------------9--9--------9--------------------------|
D------7---7--7---9/11------(9)/11---9-7---7----7---10-9-7----|
A--7/9---9------9------------------------9----9---9---------9-|
E-------------------------------------------------------------|


 AGDA
E---------------------------------------------------------------------|
B---------------------------------------------------------------------|
G--------------------------------9--9--9--9--9--9--/12-12-12-12-12-12-|
D-------------------10-9-7-9/11--11-11-11-11-11-11-/14-14-14-14-14-14-|
A-----7-9-7-9-7-9-7---------------------------------------------------|
E-7/9-----------------------------------------------------------------|


 DC
E---------------------------------------------------|
B---------------------------------------------------|
G---------------------------------------------------|
D------7-9-7-(9)/10-9--7-9-7-7------------8-8-7-7-5-|
A--7/9-----------------------------7-7-10-----------|
E------------------------------8-8------------------|


 DC
E---------------------------------------------------------|
B---------------------------------------------------------|
G----------------------------7~~-7------------------------|
D-----7-9-7-10-7-10-7-10/7-5-----------------7----8-7-5-5-|
A-7/9---------------------------------7-7-10---10---------|
E-----------------------------------8---------------------|


 E
E------------------------------------------------------------------|
B-------------------------------------------------10-(12)/14-12-10-|
G----------------------------------9----9----9-11------------------|
D-----7---7-7-9-(9)/11-9-9--9-9/11---11--(11)----------------------|
A-7/9---9----------------------------------------------------------|
E------------------------------------------------------------------|


 A
E-----------------------|
B----10--(13)b14b13-10~-|
G-11--------------------|
D-----------------------|
A-----------------------|
E-----------------------|


also, the final in and out of love part:

 AGD
I keep f...                             

 AGD
 F...                             

 AGD
 Don't know ...                 

 AGDmEA
 Falling in and out of love... with yooou oooooo    

Send comments, suggestions, or a friendly hello to toadtoad@aol.com.

TAB SUBMITTED BY AEROJMAC@GMAIL.COM, FOUND ORIGINALLY ON
3/9/06, TRANSCRIBED BY TODD BORUFF (toadtoad@aol.com)


A C D Dm E G
variations - click chord images
Transpose chords:
Tuning:
Cool service:
View: Size:
A  A  A
Rating:
Layout:
  • Currently 2.9/5 Stars.
  • 1
  • 2
  • 3
  • 4
  • 5
 
Accuracy:
  • Currently 3.3/5 Stars.
  • 1
  • 2
  • 3
  • 4
  • 5
 
click stars to rate
Chordie recommends:
Learn to play songs at Jamplay.com with video guitar lessons
Songbook:
Login to add this song to your songbook
Support the artist
Preview/buy this song
MSN Music
Why this non-profit ad?

 
login to add comments/video/corrections