Chordie logo

Plastique   Push Play



-------------------------------------------------------------------------------
			     PLASTIQUE – Push Play
-------------------------------------------------------------------------------

You probably haven't heard of them yet, but they’re very good, and their first
CD, ‘Deserted,’ just came out a few days ago. Enjoy and check them out at
www.myspace.com/pushplayrox

official website: http://www.pushplaysite.com

Tabbed by: Hannah
Email: hmg234@aol.com

Order:
Intro/Verse x3
Chorus x2
Bridge
Intro/Verse
Chorus x2
2nd Bridge
Chorus x2 and ending note

Intro/Verse:
e|-------------------------|-------------------------------------------------|
B|-------------------------|-------------------------------------------------|
G|-9-9--9----9--9--9-9--12-|-14-14--14----14--14--14-14--14------------------|
D|-9-9--9----9--9--9-9--12-|-14-14--14----14--14--14-14--14------------------|
A|-7-7--7----7--7--7-7--10-|-12-12--12----12--12--12-12--12------------------|
E|-------------------------|-------------------------------------------------|

e|--------------------------------|------------------------------------------|
B|--------------------------------|------------------------------------------|
G|--------------------------------|---------7-5-------------7-5--------------|
D|--------------------------------|---5-7-5-----5/7---5-7-5-----5/7----------|
A|-10-10--10----10--10--10-10--10-|-7---------------7------------------------|
E|--------------------------------|------------------------------------------|

Chorus:
e|---------------------------------------------------------------------------|
B|---------------------------------------------------------------------------|
G|------------5---------------------5----------------------------------------|
D|-7----------5-(x4)-----6----------5-(x16)----------------------------------|
A|-7—(x12)----3----------6-(x16)----3----------------------------------------|
E|-5---------------------4---------------------------------------------------|
  (life has  me right...)	

Bridge:
e|-------------------------|---------|
B|-------------------------|---------|
G|-9-9--9----9--9--9-9--12-|-9-9--9--|
D|-9-9--9----9--9--9-9--12-|-9-9--9--|
A|-7-7--7----7--7--7-7--10-|-7-7--7--|
E|-----------------------------------|

Part that I have no name for so we’ll call it 2nd Bridge:
e|---------------------------------------------------------------------------|
B|---------------------------------------------------------------------------|
G|-7----9----10----12----14--------------------------------------------------|
D|-7----9----10----12----14--------------------------------------------------|
A|-5----7----8-----10----12--------------------------------------------------|
E|---------------------------------------------------------------------------|
(for this part, play each note once and hold it for 16 beats)

End: (this is played while another 
      guitar plays the intro/verse)                         End on:
e|-------------------------------------------------------  |-----|
B|-------------------------------------------------------  |-----|
G|------------5------------------------------------------  |-----|
D|-7----------5-(x16)----5----------7---------6----------  |--7--|
A|-7—(x16)----3----------5-(x16)----7-(x4)----6-(x4)-----  |--7--|

E|-5---------------------3----------5---------4----------  |--5--|

And that’s it! It’s a pretty simple song, but I love it :D



Important: The song above is NOT stored on the Chordie server. The original song is hosted at www.guitaretab.com. Chordie works as a search engine and provides on-the-fly formatting. Chordie does not index songs against artists/composers will. To remove this song please click here.

This song is displayed as text-only. Transposing and tuning is only available for chordpro-songs.

Login - add to songbook

Rating click stars to rate

Layout
Accuracy

SHARE PAGE  



You need to log in to post comments