eToCache5 = ""; ?> Baseline by Quarashi - guitar chords, guitar tabs and lyrics - chordie

Baseline

Quarashi


quarashi 'baseline' jinx tabbed by: i am not o-fucking-kay! (i_am_not_ok@inbox.ru) tuning: standard (EADGBe)
quarashi is greatest rapcore band. they haven't any guitarists but they have guitars on their songs. i think their guitars used like samples. cuz in quarashi's songs plays only one guitar, then it's becomes two both playing guitars. whatever their guitars are very simple, cuz in their songs guitar is not dominationous equipment, guitar is just an addition. but you can't play it if you're didn't listen to this song.
// intro
_ only one guitar (use distortion pedal):
-------------------| -------------------| -------------------| (x4) -------------------| -4-4-4-4--4-4--4-4-| -2-2-2-2--2-2--2-2-| . . . . . . . .
_ only one guitar (use overdrive with lil' gain):
-----------| -1-3-3-2-1-| -2-2-0-2-2-| (x2) -2-2-2-2-2-| -----------| -----------|
// verse 1
_ only one guitar (use distortion pedal):
-------------------| -------------------| -------------------| (x4) -------------------| -4-4-4-4--4-4--4-4-| -2-2-2-2--2-2--2-2-| . . . . . . . .
_ only one guitar (use distortion pedal):
---------| ---------| ---------| (x9) ---------| ---------| -5-5-6p5-|
(then both 2 guitars):
_ guitar 1 (use distortion pedal):
---------------| ---------------| ---------------| ---------------| -4-4-4---4-4-4-| -2-2-2---2-2-2-| . . . . . .
_ guitar 2 (use light overdrive pedal):
---------| ---------| ---------| (x7) ---------| ---------| -5-5-6p5-|
// chorus 1
_ only one guitar (use distortion pedal):
-----------------------| -----------------------| -----------------------| (x4) -2\--0-5-0h6-0h5-6-5-0-| -2\--0-5-0h6-0h5-6-5-0-| -0\--0-3-0h4-0h3-4-3-0-|
// verse 2
_ guitar 1 (use distortion pedal):
---------------------------| ---------------------------| ---------------------------| (x2) ---------------------------| -4-4---4-4-4--4-4-4--4-4---| -2-2---2-2-2--2-2-2--2-2---| . . . . . . . . . .
_ guitar 2 (use light overdrive pedal):
---------|
---------| ---------| (x17) ---------| ---------| -5-5-6p5-|
_ only one guitar (use distortion pedal):
---------------------------| ---------------------------| ---------------------------| ---------------------------| -4-4---4-4-4--4-4-4--4-4---| -2-2---2-2-2--2-2-2--2-2---| . . . . . . . . . .
_ guitar 1 (use distortion pedal):
---------------------------| ---------------------------| ---------------------------| ---------------------------| -4-4---4-4-4--4-4-4--4-4---| -2-2---2-2-2--2-2-2--2-2---| . . . . . . . . . .
_ guitar 2 (use light overdrive pedal):
---------| ---------| ---------| (x7) ---------| ---------| -5-5-6p5-|
// chorus 2
_ only one guitar (use distortion pedal):
-----------------------| -----------------------| -----------------------| (x4) -2\--0-5-0h6-0h5-6-5-0-| -2\--0-5-0h6-0h5-6-5-0-| -0\--0-3-0h4-0h3-4-3-0-|
// bridge
_ only one guitar (use overdrive with lil' gain):
-----------| -1-3-3-2-1-| -2-2-0-2-2-| (x4) -2-2-2-2-2-| -----------| -----------|
// chorus 3
_ only one guitar (use distortion pedal):
-----------------------| -----------------------| -----------------------| (x3) -2\--0-5-0h6-0h5-6-5-0-| -2\--0-5-0h6-0h5-6-5-0-| -0\--0-3-0h4-0h3-4-3-0-|
-------------------| -------------------| -------------------| -2\--0-5-0h6-0h5-6-| -2\--0-5-0h6-0h5-6-| -0\--0-3-0h4-0h3-4-| 'baseline!..'
// outro:
_ only one guitar (use distortion pedal):
--------------------------------------------------------| --------------------------------------------------------| --------------------------------------------------------| (x2) -2\-2\--0-5-0h6-0h5-6-5-0--2\-2\-2\-2-0-5-0h6-0h5-6-5-0-| -2\-2\--0-5-0h6-0h5-6-5-0--2\-2\-2\-2-0-5-0h6-0h5-6-5-0-| -0\-0\--0-3-0h4-0h3-4-3-0--0\-0\-0\-0-0-3-0h4-0h3-4-3-0-|
---- ---- ---- -2\- -2\- -0\-
. - palm mute / - slide up \ - slide down h - hammer on p - pull off
rapcore rules! enjoy that shit!

variations - click chord images
Transpose chords:
Tuning:
Cool service:
View: Size:
A  A  A
Rating:
Layout:
  • Currently 0/5 Stars.
  • 1
  • 2
  • 3
  • 4
  • 5
 
Accuracy:
  • Currently 2.7/5 Stars.
  • 1
  • 2
  • 3
  • 4
  • 5
 
click stars to rate
Chordie recommends:
Get acoustic guitar lessons and electric guitar lessons at JamPlay.com
Songbook:
Login to add this song to your songbook
Support the artist
Preview/buy this song
MSN Music
Why this non-profit ad?

 
login to add comments/video/corrections