Guitar Tabs, Chords and Lyrics


God Save The Queen   Queen



God Save The Queen
Arranged By Brian May
you'll need 3 guitars and 1 bass and a drummer to do the 'night at the opera' version

middle
|-------------2-----3-5---7---7---8---7-----5-----5---3---2---3----|
|-8---8--10---3-----2-3---8---8---8---8-----7-8---5---3---1---3----|
|-7---9---9---2-----2-2---7---9---9---7-----5-9---5---4---2---4----|
|-9---9--10---0-----2-4-----------------------9-------0---0--------|
|10---7------------------10---7-------5-----6-7---3----------------|
|---------8-----------------------8---------------------------3----|

guitars on left
|-3-----5-----7------8----|-10--10--10--10----8--7--|
|-8-----7-----8------7----|-12--12--12--12---10--8--|
|-7-----7-----7------7----|-12--12--11--12---11-12--|
|-------------------------|-12--12--12--12---12-12--|
|-5-----3-----2------0----|-------------------------|
|-------------------------|-3----7--10--15----7--3--|
|guitars on right         |                         |
|-101214121415141517151719|19---19------19___...----|
|-121315131517151719171920|20---20------20___...----|
|-121416141617161719171921|19---19------19___...----|
|-------------------------|-------------------------|
|-------------------------|-------------------------|
|-------------------------|-------------------------|
                          |distorted bass (middle)  |
                          |-------------------------|
                          |--------------5----------|
                          |------2---5--------5-----|
                          |-3--------------------3--|

|-8-------8-----8---8------7----5----|
|-7-------7-----7---7------8----7----|
|-7-------7-----7---7------7----7----|
|------------------------------------|
|-5-------9----12---5-----10----5----|
|------------------------------------|
|                                    |
|-19b20--b20--b20--b20----r19--17-15-|
|-20b22--b22--b22--b22----r20--19-17-|
|-21b23--b23--b23--b23-----21--19-17-|
|------------------------------------|
|------------------------------------|
|------------------------------------|
|                                    |
|------------------------------------|
|----------4---7-------------5-------|
|--5----------------5-----------5----|
|------------------------------------|


|-7-----8--7--5--3--7-----8---10--|-12\8--7--5----|
|-8-----7--8-10--8--8----10---12--|-13\10-8--8-7--|
|-7-----7--7--7--6--7----11---10--|-12___-7--7----|
|------------------------12---12--|---------------|
|-10---12-10--9--7--5-3-2-0-------|-3-----5--5----|
|-----------------------------3---|---------------|
|                                 |               |
|-19---20-19-17-15-19----20--22---|-24\20-19-17---|
|-20---19-20-22-20-20----22--24---|-25\22-20-19---|
|-19---19-19-19-18-19----19--24---|-24___-19-19---|
|---------------------------------|---------------|
|---------------------------------|---------------|
|---------------------------------|---------------|
|                                 |               |
|---------------------------------|---------------|
|--5----7--5--4--2--0-------------|---------------|
|---------------------3-2-0-------|--3-----5--5---|
|-----------------------------3---|---------------|

guitars (middle)
|--------------------|--------------------------|
|-8--7---5---3-5-3hp-|--------------------------|
|-9--7---5---4-5-4hp-|-4--2-0hp-----------------|
|-10-10\-5__________\|-5--5-----4--2-/4--5__...-|
|--------------------|-5--5-3________/5--5__...-|
|--------------------|------3________/5--3__...-|
|left
|-3-----------|
|-5___\3------|
|-5___\4------|
|-------------|
|-------------|
|-------------|
|right
|-15---10h12ph..p10---12_h14ph..p12---14----14/17\15_________________-|
|-17---12h13ph..p12---13_h15ph..p13---15/17\15_\13-12-13-12hp..p10-12-|
|-17---12h13ph..p12---12________h14ph..........p12___________________-|
|---------------------------------------------------------------------|
|---------------------------------------------------------------------|
|---------------------------------------------------------------------|

tabbed by Matt04@matt04.zzn.com


Important: The song above is NOT stored on the Chordie server. The original song is hosted at www.guitaretab.com. Chordie works as a search engine and provides on-the-fly formatting. Chordie does not index songs against artists/composers will. To remove this song please click here.

This song is displayed as text-only. Transposing and tuning is only available for chordpro-songs.

Login - add to songbook

Rating click stars to rate

Layout
Accuracy

SHARE PAGE  




You need to log in to post comments