Guitar Tabs, Chords and Lyrics


Afterglow  Quiet Riot

|-------------------------|


|-<12>-----------<12>-<7>-|


|------<12>---------------|

|-----------<12>----------|
|-------------------------|
|-------------------------|
[-----]Arranged for one six-string guitar - notes added to make it
sound fuller, and notes taken away to make it possible to play
with one guitar:
|-0---------------|-2-------2-------|-----------------|-2---------------|
|-1-----3---1-0---|-3-----------3---|-------3---1-0---|-3---------------|
|-0-----0-----0---|-2---------------|-----0-0-----0---|-2---------------|
|-2-----2---------|-0---------------|---2---2---------|-0---------------|
|-3---------------|-------------0-2-|-3---------------|-----------------|
|-----------------|-----------------|-----------------|-----------------|
|-2-------2-------|
|-3---------3-----|
|-0-----------0---|
|-0---------------|
|-----------------|
|-3---------------|


Verse
[-----]                                     
Love Love is all around me Everywhere
|-2---------------|-----3---3-------|-----3---3-------|-----2-3-2-------|
|-3---------------|---1---1---------|---3---3---------|-----3---3-------|
|-2---------------|-0---------------|-4---------------|---2-------------|
|-0---------------|-2---------------|-5---------------|-0---------------|
|-----------------|-3---------------|-----------------|-----------------|
|-----------------|-----------------|-----------------|-----------------|



Love has come to touch my soul with someone who really cares
|-12--------12----|-----------------|-0-------0-------|-----------------|
|-9---------9-----|-12---13-12------|-1-------3-------|-2---------------|
|-9---------9-----|-12------12------|-0-------0-------|-2---------------|
|-9---------9-----|-12--------------|-2-------0-------|-2---------------|
|-11--------11----|-10--------------|-3-------2-------|-0---------------|
|-9---------9-----|-----------------|-----------------|-----------------|



Pre-chorus
----------

[F#]No one can [G]deny us   [F#]
[Em]People who once passed me [A]by will turn their heads around

Chorus
------

[D]I'm happy just to [Em]be with you
[G]And loving you the [A]way I do
[D]Yes everything I [Em]need to know
G A (w/ first three bars of intro)
Just resting in the afterglow of your love... it feels good baby

2nd verse/pre-chorus:

You, you have always been here
Feeling deep inside
A feeling that I could not see
or touch or try to hide

My love is in and around you
I bless the day that I found you... listen baby

chorus - this time, add these chords at the end:

[D]    [C]  [G]                               
Interlude
---------


[A]Love is like a voice in my he[C]ad[G]
[A]Keeps turning round the things that we sai[C]d

Solo
[G]          [D]                      [G]           [D]                                   
---------|---------------|----------------|----------------|
---------|---------------|---------7b(.5)-|-7---7-8-10b(1)-|
-9pb(1)r-|-7---6-7-9b(1)-|-7--------------|----------------|
---------|---------------|-----7-7--------|----------------|
---------|---------------|----------------|----------------|
---------|---------------|----------------|----------------|


        [C]   [G]     [D]                         [C]  [G/B]                                    
|-------------|-------------------|--------------|
|-10----------|-10b(1)-10-10b(1)r-|-8-7-7pb(.5)r-|
|------7-7----|-------------------|--------------|
|-------------|-------------------|--------------|
|-------------|-------------------|--------------|
|-------------|-------------------|--------------|


D C G/B (w/ rhythm figure shown below)
|---------------|-------------12-14-|------------|-------------------|
|-8-7-8-10-8-10-|-12-10-12-15-------|-15b(1)-15--|-15b(1)-15-15b(1)r-|
|---------------|-------------------|------------|-------------------|
|---------------|-------------------|------------|-------------------|
|---------------|-------------------|------------|-------------------|
|---------------|-------------------|------------|-------------------|



Rhythm behind last two bars of solo:

Oh
|----------------|----------------|
|-1----1-3---3---|-1---1--3---3---|
|-0--0---2-2-----|-0-0----2-2-----|
|-2------0-------|-2------0-------|
|-3--------------|-3--------------|
|----------------|----------------|


Fade out with chorus repeats

Important: The song above is NOT stored on the Chordie server. The original song is hosted at www.guitaretab.com. Chordie works as a search engine and provides on-the-fly formatting. Chordie does not index songs against artists'/composers' will. To remove this song please click here.

Text color:
Chord color:
Chord grids: 
Font size:    
Page size: 

A C D Em F# G G/B
variations - click chord images

Login - add to songbook

Transpose chords

Tuning

Rating click stars to rate

Layout
Accuracy

SHARE PAGE  




You need to log in to post comments