Guitar Tabs, Chords and Lyrics


All I Really Want  R. Kelly

-----------------------------------------------------------------------------



-----------------------------------------------------------------------------

        [Cm7/C#m7]                                 [G#m7]                    [F#m7]                       
e|-------------------------|----------------|--------------------------------|
B|--4/5---------(5)--------|------(4)-------|--2---------2----------2----(4)-|
G|--3/4---------(4)--------|------(4)-------|--2---------2-------------2-(4)-|
D|--5/6---------(6)--------|------(4)-------|--2---------2-------2-------(4)-|
A|---------(4)-------------|----------------|---------------2h4--------------|
E|--------------------(0)--|--2/4-----------|-----(2)------------------------|

Am not quite sure about the actual key used but this is just about how the progression
the whole song. Try it and see!


R KELLY - All I Really Want Lyrics
Baby, we been knowing each other for a long, long time for
somethin' like this to just go and break up everything.

[Verse 1:] 
Here we are, just sittin' here
Knowin' we're all alone
My Rolley's lookin' at me
Sayin' it's time to get it on
You know what I want
And baby, I know what you need
So stop hesitatin', girl
And give your love to me.

[Cborus:] 
All I really want is to love you, babe
Make your body feel like heaven, babe
I just wanna satisfy ya, babe
That's all I want, that's all I want
I just wanna give ya somethin', babe
Just wanna keep it comin', babe
I just wanna make you happy, babe
That's all I want, that's all I want.

[Verse 2:] 
Though the fireplace is burnin' marshmallows just right
To who it may concern
You won't be comin' home tonight
Body parts that he DON'T kiss
Girl, I will kiss for you
Just put this CD on the repeat
And let me pamper you.

[Repeat Cborus] 

[Verse 3:] 
Now the swimmin' pool's out back
Come on and skinny dip, baby
Eat breakfast in the morning
That'll be complements of me
In the middle of the night
There's no need for morning here
So hold your pillow tight
Cuz I wanna do it again and again.

[Repeat Cborus] 

[Bridge:] 
(Til the sun comes up)
Baby, we'll be makin' love
(And when the sun goes down)
Still we won't have enough
Take this love to you
I will take care of all you need
Baby, lets asure
I just wanna set you free, free.

[Repeat Cborus til fade] 

| / slide up
| \ slide down
| h hammer-on
| p pull-off
| ~ vibrato
| + harmonic
| x Mute note
===============================================================================

Important: The song above is NOT stored on the Chordie server. The original song is hosted at www.guitaretab.com. Chordie works as a search engine and provides on-the-fly formatting. Chordie does not index songs against artists'/composers' will. To remove this song please click here.

Text color:
Chord color:
Chord grids: 
Font size:    
Page size: 

F#m7 G#m7
variations - click chord images

Login - add to songbook

Transpose chords

Tuning

Rating click stars to rate

Layout
Accuracy

SHARE PAGE  




You need to log in to post comments