Guitar Tabs, Chords and Lyrics


O Anzol  Radio Macau

e|----------------------------------------------------------------|


B|----------------------------------------------------------------|


G|----------------------------------------------------------------|

D|----/11---9-----------------------------------------------------|
A|--------------12--11---9----------------------------------------|
E|---------------------------12-------10--9--10---12------7-------|
e|----------------------------------------------------------------|
B|----------------------------------------------------------------|
G|----------------------------------------------------------------|
D|----------------------------------------------------------------|
A|----------------------------------------------------------------|
E|----10--9---7---5-----------------------------------------------|
[A]Ah eu já pens[C#m]ei
[Bm]Mandar pintar [D]o céu
[A]Em tons de azul
[C#m]P'ra ser origina[Bm]l.   [D]
[A]Só depois notei [C#m]
[Bm]Que azul já ele[D] é
[A]Houve alguém
[C#m]Que teve ideia i[Bm]gual.[D]
(Chorus)
--------------------------------------


Guitar 1(Acoustic):
[A]Eu não sei se hei-de[D] fugir
[A]Ou morder o anzol [D]
[A]Já não há [D]nada de novo aqui[A]   [D]
[A]Debaixo do sol[C#m].    [Bm]    [D]

Guitar 2(Electric):
      [A]                      [D]                                              
e|-------0------0------0--------2------2-----2-----------|
B|---------2------2---------------3------3---------------|
G|-----------2------2---------------2------2-------------|
D|--------------------------0----------------------------|
A|----0--------------------------------------------------|
E|-------------------------------------------------------|

Play this riff while playing the chorus

---------------------------------------


Já me persegui
Por becos e ruelas
De horror
Caminhos sem saída
Até que me perdi
Sozinha sem saber
De que côr
Pintar a minha vida

Eu não sei se hei-de fugir
Ou morder o anzol
Já não há nada de novo aqui
Debaixo do sol.


Eu não sei se hei-de fugir
Ou morder o anzol
Já não há nada de novo aqui
Debaixo do sol.

Important: The song above is NOT stored on the Chordie server. The original song is hosted at www.guitaretab.com. Chordie works as a search engine and provides on-the-fly formatting. Chordie does not index songs against artists'/composers' will. To remove this song please click here.

Text color:
Chord color:
Chord grids: 
Font size:    
Page size: 

A Bm C#m D
variations - click chord images

Login - add to songbook

Transpose chords

Tuning

Rating click stars to rate

Layout
Accuracy

SHARE PAGE  




You need to log in to post comments