Chordie logo


Scatterbrain   Radiohead



----------------------------------------------------------------------------|            
             Scatterbrain
----------------------------------------------------------------------------|


Standard tuning

Intro

Guitar 1
e-------0---------------------------|
B---------------3--------1--------0-|
G----2------------------------------| X2
D------------0--------3--------2----|
A-3--------2-------0----------------|
E---------------------------3-------|


Verse 1

Guitar 1
e-------0-------------------------------------------------------|
B----------------3--------1--------0----------------------------|
G----2--------------------------------------2--------0--------2-|
D-------------0--------3--------2--------1--------2--------1----|
A-3--------2--------0-------------------------------------------|
E----------------------------3--------2--------0--------0-------|

Play this until the Bridgy thingy


Bridgy thingy
e-----------------------1---0----------0------------0--------|
B------4-------3--2------------------------------------0-----|
G---3-------3--------------------0---------------0-------0-0-|
D--------------------2---------------------2--0--------------|
A------------------------------------------------------------|
E-3---------------------------------0------------------------|

e----------------------1---0-|
B------4----4\3--2-----------|
G---3---------3--------------|
D----------------------------|
A-------------------0--------|
E-3--------------------------|

Verse 2

Play guitar 1 part again but add some slight variations.
Play guitar 2 (below) over it;.

Guitar 2 (can be play with capo, but not neccessary)

e-12-----------------------------------------------------------|
B-----13---15-------13-------12--------------------------------|
G--------------16-------14-------12---14-------12-------14-----|
D-----------------------------------------16-------14-------16-|
A--------------------------------------------------------------|
E--------------------------------------------------------------|

e-12-----------------------------------------------------------|
B-----13---15-------13-------12-------16-------17-------16-----|
G--------------16-------14-------12-------17-------16-------17-|
D--------------------------------------------------------------|
A--------------------------------------------------------------|
E--------------------------------------------------------------|

e-12----------------------------------14-------15-------14-----|
B-----13---15-------13-----------15-------16-------12----------|
G--------------16-------14---16--------------------------------|
D--------------------------------------------------------------|
A--------------------------------------------------------------|
E--------------------------------------------------------------|

e-12--------------------------------------------------------------|
B-----13---15-------13-------12----------------13-----------------|
G--------------16-------14-------12---14-----------16---14--------|
D-----------------------------------------16----------------16/17-|
A-----------------------------------------------------------------|
E-----------------------------------------------------------------|

Last bit

Guitar 1

e---------------------------------------------------|
B-------1----0---------------------7-----------7----|
G----------0----------7---6----------7------------6-|
D----2-------------4------------0-----------7-------|
A----------------------------------------0----------|
E-3-------------6------------7----------------------|

Guitar 1
e------------------------------------------------------------|
B------1----0---------------------7--------------10----------|
G--------------------7--6h7-------------7-------------11-----|
D---2-------------4------------0-----0--------------------12-|
A------------------------------------------------------------|
E-3-------3----6-------6----7-------------/10-10-------------|

Guitar 2
e---------12-------------------------12----------------------|
B-----15-------15----------------15-------15-----------------|
G-12-------------------------16------------------------------|
D------------------------------------------------------------|
A------------------------------------------------------------|
E------------------------------------------------------------|

Do both these parts twice, then

Guitar 1
e-----------------------------------------------------------------|
B------1----0-----------------------7---8p7--------------10-------|
G--------------------7--7\6-\---------------7---------------11----|
D---2-------------4--------------0----0-------0-----0----------12-|
A-----------------------------------------------------------------|
E-3------------6-------6------7-----------------10-----10---------|

Guitar 2
e-------12-------------12-------------12-------14----------------|
B----15-----15------15-----15------15-----15---------15--14h15---|
G-12-------------15-------------16-------------------------------|
D----------------------------------------------------------------|
A----------------------------------------------------------------|
E----------------------------------------------------------------|


Guitar1
e------------------------------------------------------------------|
B------1----0---------------------7h8--7-----------------10--------|
G--------------------7----6--------------7------------------11-----|
D---2-------------4-------------0-----------0------0-----------12--|
A------------------------------------------------------------------|
E-3-------3----6-------6-----7----------------/10-----10-----------|

Guitar 2
e-------12-------------12-------------12--------------------------|
B----15-----15------15-----15------15-----15----------------------|
G-12-------------15-------------16--------------------------------|
D-----------------------------------------------------------------|
A-----------------------------------------------------------------|
E-----------------------------------------------------------------|

Guitar 1
e-------------------------------------------------------------------|
B------1--0--------------------------7----8p7--------------10-------|
G-----------0--------7----6h7-----------------7---------------11----|
D---2-------------4---------------0-------------0-----0----------12-|
A-------------------------------------------------------------------|
E-3------------6--------6------7------------------10-----10---------|

Guitar 2
e-------12-------------12-------------12--------14------------|
B----15-----15------15-----15------15-----15--------15--14h15-|
G-12-------------15-------------16----------------------------|
D-------------------------------------------------------------|
A-------------------------------------------------------------|
E-------------------------------------------------------------|


Guitar 1
e-------------------------------------------------------------|
B------1---0--------------------------------------------------|
G------------0--------7---------------------------------------|
D---2--------------4--------6--6\4---4------------------------|
A-------------------------------------------------------------|
E-3------3------6---------------------------------------------|

Guitar 2
e-------12-------------12-------------12--------14------------|
B----15-----15------15-----15------15-----15--------15--14h15-|
G-12-------------15-------------16----------------------------|
D-------------------------------------------------------------|
A-------------------------------------------------------------|
E-------------------------------------------------------------|


Outro

Guitar 2 (1)

e-------12-------14--------------------------------------------|
B----15-----15-------15--14h15---------------------------------|
G-12-----------------------------------------------------------|
D--------------------------------------------------------------|
A--------------------------------------------------------------|
E-(3)----------------------------------------------------------|

The end

Key

h= hammer on
p= pull of
\= slide down


Important: The song above is NOT stored on the Chordie server. The original song is hosted at www.guitaretab.com. Chordie works as a search engine and provides on-the-fly formatting. Chordie does not index songs against artists/composers will. To remove this song please click here.

This song is displayed as text-only. Transposing and tuning is only available for chordpro-songs.

Login - add to songbook

Rating click stars to rate

Layout
Accuracy

SHARE PAGE  




You need to log in to post comments