Chordie logo

2+2=5   Radiohead



Name: 2+2=5 
Tabbed By: Gav H

Note: Song starts out in 7/8 time

Drop D tuning
Intro (2 guitars written for one)
   *             *             *             *
e-------------------------------------------------------------------
B-------------------------------------------------------------------
G--2-------------2-------------1-------------1----------------------
D------4-------4-----4-------4-----4-------4-----4-------4----------
A----4---4---4-----4---4---4-----4---4---4-----4---4---4------------
E--4-------4-----4-------4-----3-------3-----3-------3--------------

Repeat Intro 4x - vocals start 3rd time
Are you such...
e-------------------------------------------------------------------
B-------------------------------------------------------------------
G-----3-------------3-------------3-------------4-------------------
D---------4-------4-----4-------4-----1-------1-----6-------6-------
A-------4---4---4-----4---4---4-----1---1---1-----6---6---6---------
E-----2-------2-----2-------2-----1-------1-----6-------6-----------
 When 2          and  2           always        make

e-------------------------------------------------------------------
B-------------------------------------------------------------------
G--4-------------1-------------1-------------1----------------------
D------4-------4-----3-------3-----3-------3-----3-------3----------
A----5---5---5-----4---4---4-----4---4---4-----4---4---4------------
E--4-------4-----3-------3-----3-------3-----3-------3--------------
   five

2nd Verse, repeat above

Switch to 4/4

It's the devil...

Guitar 1 *tremolo*
e----5-4-2-4-4-2/7\2/7\4---repeat multiple times--------------------
B-------------------------------------------------------------------
G-------------------------------------------------------------------
D-------------------------------------------------------------------
A-------------------------------------------------------------------
E-------------------------------------------------------------------

Guitar 2
e-------------------------------------------------------------------
B-------------------------------------------------------------------
G---11----------10------7------6------9------7------7------6--------
D---11--strum---10------7------6------9------7------7------6--------
A---9-----------8-------5------4------7------5------5------4--------
E-------------------------------------------------------------------

Continue above throughout the whole "feel the tension" part

Part 3 ("cause I'm not")
Guitar 2
e-------------------------------------------------------------------
B--2-2--X-X--4-4---2-2--X-X--4-4------------------------------------
G--2-2--X-X--4-4---2-2--X-X--4-4---5-5--X-X--5-5---5-5--X-X--5-5----
D--2-2--X-X--4-4---2-2--X-X--4-4---6-6--X-X--6-6---6-6--X-X--6-6----
A--0-0--X-X--2-2---0-0--X-X--2-2---6-6--X-X--6-6---6-6--X-X--6-6----
E----------------------------------6-6--X-X--6-6---6-6--X-X--6-6----

Guitar 1

e-------------------------------------------------------------------
B--7-7-------9-9---7-7-------9-9---7-7-------7-7---7-7-------7-7----
G-------------------------------------------------------------------
D-------------------------------------------------------------------
A-------------------------------------------------------------------
E-------------------------------------------------------------------

e-------------------------------------------------------------------

B--12-12---12-12---12-12----------7-8-9--------7-8-9----------------
G--------------------------9-8-7---------9-8-7----------------------
D-------------------------------------------------------------------
A-------------------------------------------------------------------
E-------------------------------------------------------------------

End

Enjoy!


Important: The song above is NOT stored on the Chordie server. The original song is hosted at www.guitaretab.com. Chordie works as a search engine and provides on-the-fly formatting. Chordie does not index songs against artists/composers will. To remove this song please click here.

This song is displayed as text-only. Transposing and tuning is only available for chordpro-songs.

Login - add to songbook

Rating click stars to rate

Layout
Accuracy

SHARE PAGE  



You need to log in to post comments