Guitar Tabs, Chords and Lyrics


High And Dry  Radiohead

Intro

e --0---0---0---0-------0---0---0--0--0---0------------
b --0---0---0---0-------0---0---0--0--0---0------------
g --13--13--13--13--11--11--11------- 11--11-----------
d -----------------------------------------------------
a --11--11--11--11--9---9---9---------9---9------------
e -----------------------------------------------------
e --0---0---0---0-------0---0---0--0--0---0--0--0------
b --0---0---0---0-------0---0---0--0--0---0--0--0------
g --13--13--13--13--9---9---9---------9---9--9--9------
d -----------------------------------------------------
a --11--11--11--11--7---7---7---------7---7--7--7------
e ----------------------------------------------0------


Stay on the e for 8 beats and then repeat.

Verse 1

[F#m11]Two jumps in a week I bet you [Aadd9]think thats pretty clever don't you [E]boy?

[F#m11]Flying on your motorcycle, [Aadd9]watching the ground beneath you [E]drop.[A/E]
[F#m11]You'd kill yourself for recognition, [Aadd9]kill yourself to never ever [E]stop
[F#m11]You broke another mirror, you're [Aadd9]turning into something you are [E]not  [Esus4]
Chorus

[E]  Don't leave me [F#m11]high

[A]   Don't leave me [E]dry
Don't leave me [F#m11]high
[A]Don't leave me [E]dry
That is the basis of the song, you should be
able to work out the rest from here!!

Digs (digs@totalise.co.uk)

Important: The song above is NOT stored on the Chordie server. The original song is hosted at www.guitaretab.com. Chordie works as a search engine and provides on-the-fly formatting. Chordie does not index songs against artists/composers will. To remove this song please click here.

Text color:
Chord color:
Chord grids: 
Font size:    
Page size: 

A A/E Aadd9 E Esus4 F#m11
variations - click chord images

Login - add to songbook

Transpose chords

Tuning

Rating click stars to rate

Layout
Accuracy

SHARE PAGE  




You need to log in to post comments