""; ?> Manusia Biasa by Radja - guitar chords, guitar tabs and lyrics - chordie

Manusia Biasa

Radja

e|---------------------------------------------|

B|--13--12-13--13--12-13--13--13---------------|
G|----12-----12--12-----12--12-----------------| 6x
D|---------------------------------------------|
A|---------------------------------------------|
E|---------------------------------------------|

 F
e|---------------------------------------------|
B|--13-12-10-13--12-13-13/15-------------------|
G|---------------------------------------------|
D|---------------------------------------------|
A|---------------------------------------------|
E|---------------------------------------------|


Fill 1 ( pake distorsi )

e|---7~~---------|
B|---8~~---------|
G|---9~~---------|
D|---9~~---------|
A|---------------|
E|---------------|


Fill 2 ( pake distorsi )

e|---3-5~-----|
B|---3-5~-----|
G|---4-5~-----|
D|---5-7~-----|
A|------------|
E|------------|


Verse:

 AmEm
 Seandainya ku bisa
Am Em (fill 1)
ingin ku petik bintang
F (fill 2)
untukmu aku persembahkan
 AmEm
namun aku manusia
Am Em (fill 1)
bukannya dewa
 AmEmF
yang ku punya hanyalah cinta

kasih sayang

Fill 3 :
 CGAmEmFG
e|-------------------------------------------------------|
B|--13p12h13-15p13-12h15-13p12h13-13p12~-10~-12~---------|
G|-------------------------------------------------------|
D|-------------------------------------------------------|
A|-------------------------------------------------------|
E|-------------------------------------------------------|


Reff

(fill 3) C G Am Em
Aku hanyalah manusia biasa
(fill 3) F G C
Yang tak pernah lepas dari khilaf
(fill 3) G Am Em
Ku mencoba merubah segalanya
(fill 3) F G
Mungkin ada kesempatan

Verse
 AmEm
 Aku juga merasa
Am Em (fill 1)
ingin dicinta
Am Em F (fill 2)
disanjung dipeluk selamanya
 AmEm
kalau memang ku salah
Am Em (fill 1)
berikan maaf
 AmEmF
demi sumpah cinta yang pernah kita ucapkan

Back to Reff

solo
e|---------------------------------------------|
B|---------------------------------------------|
G|--/9-5-7-4-4--/5-5-5-5-4-2-0-----------------|
D|---------------------------------------------|
A|---------------------------------------------|
E|---------------------------------------------|
e|---------------------------------------------|
B|---------------------------------------------|
G|------2~-----4-------------------------------|
D|--33-5---55-7---/55-/77-/99------------------|
A|---------------------------------------------|
E|---------------------------------------------|
e|--/12----------------------------------------|
B|-----13-15-12-12--/13-13-13-13-12-10-8-------|
G|---------------------------------------------|
D|---------------------------------------------|
A|---------------------------------------------|
E|---------------------------------------------|
e|------5~------7~-----------------------------|
B|--66-8---88-10-------------------------------|
G|---------------------------------------------|
D|---------------------------------------------|
A|---------------------------------------------|
E|---------------------------------------------|


Back to reff (3x)


Am C Em F G
variations - click chord images
Transpose chords:
Tuning:
Cool service:
View: Size:
A  A  A
Rating:
Layout:
  • Currently 2.4/5 Stars.
  • 1
  • 2
  • 3
  • 4
  • 5
 
Accuracy:
  • Currently 2.7/5 Stars.
  • 1
  • 2
  • 3
  • 4
  • 5
 
click stars to rate
Chordie recommends:
Learn to play this song & others via video guitar lessons at JamPlay.com
Songbook:
Login to add this song to your songbook
Support the artist
Preview/buy this song
MSN Music
Why this non-profit ad?

 
login to add comments/video/corrections