Guitar Tabs, Chords and Lyrics


Calm Like A Bomb   Rage Against The Machine



----------------------------------------------------------------------------
			    RAGE AGAINST THE MACHINE - CALM LIKE A BOMB
----------------------------------------------------------------------------
Tabbed by:Tom_Morello_jr
Email:

Tuning: Drop D  (D A D G B e)

In this song Tom use a Whammy pedal set 2 octaves up and a delay pedal for the solo

WHAMMY PEDAL:

+  close whammy
*  open whammy
  gradually open whammy
<  gradually release whammy

DELAY PEDAL:

5% feedback
40 or 50 level
about 40~45 ms

Riff #1  (Intro and verses)  --Using killswitch and whammy--

   >>>>>>>>>>>>>>>>>>>>>>>>>>>>>>>>>>>>>>>>>>
|----------------------------------------------|
|--12------------12-----------12-----------12--|
|----------------------------------------------|
|----------------------------------------------|
|----------------------------------------------|
|----------------------------------------------|

Riff #2  (pre-chorus)

|-------------------------------------|
|-------------------------------------|
|--444444444444444444444444444444444--|
|--xxxxxxxxxxxxxxxxxxxxxxxxxxxxxxxxx--|
|--222222222222222222222222222222222--|
|-------------------------------------|

Riff #3  (chorus)  [this riff should be played on the A string, but i prefer
                    doing it on the D string]

|------------------------------------------------|
|------------------------------------------------|
|------------------------------------------------|
|--------xxxxxxxxxxxxxxxx------------------------|
|--7h9---xxxxxxxxxxxxxxxx--7h9--7h9--9--9--9h12--|
|--7h9---xxxxxxxxxxxxxxxx--7h9--7h9--9--9--9h12--|

second part of the chorus

|-------------------------------------------------|
|-------------------------------------------------|
|-------------------------------------------------|
|-------------------------------------------------|
|--7h9--9h12h9--xxx--12-9---7h9--9h12h9--7--12-9--|
|--7h9--9h12h9--xxx--12-9---7h9--9h12h9--7--12-9--|

Solo part 1  --killswitch--

|-----------------------------------------|
|--12-0000-12-0000-12-0000-12-0000--------|
|----------------------------------12-12--|
|-----------------------------------------|
|-----------------------------------------|
|-----------------------------------------|

Solo part 2  --killswitch and whammy and delay--

             >>>>>>>>>>>+   >>>>>>>>>>>>+  >>>>>>>>>>>>+  >>>>>>>>>>>>>+
|-------------------------------------------------------------------------|
|--12--12----12-------------12-------------12-------------12--------------|
|----12--12---------------------------------------------------------------|
|-------------------------------------------------------------------------|
|-------------------------------------------------------------------------|
|-------------------------------------------------------------------------|

Solo part 3  --killswitch and whammy and delay--

   *

Important: The song above is NOT stored on the Chordie server. The original song is hosted at www.guitaretab.com. Chordie works as a search engine and provides on-the-fly formatting. Chordie does not index songs against artists'/composers' will. To remove this song please click here.

This song is displayed as text-only. Transposing and tuning is only available for chordpro-songs.

Login - add to songbook

Rating click stars to rate

Layout
Accuracy

SHARE PAGE  




You need to log in to post comments