Chordie logo

Guerila Radio   Rage Against The Machine



Guerilla Radio
Rage Against the Machine

From the album Battle of Los Angeles

Just use a shitload of guitar effects for this song.

Notation legend:

/ or \= slide to note before or after slash. If there is no note (such as in the intro) 
slide from or to anywhere on that string.
x= palm mute with fretting hand
PM= Palm mute with picking hand.
?= do whatever the hell you want!
~~= vibrato
( )= the pitch you must slide or bend to.

Intro:

e|-----------------------------|.|
b|-----------------------------|.| Rapeat loadsa times
g|-----------------------------|.|
d|-----------------------7--9--|.|
a|--7--9--9--7--9--7--9--------|.|
e|-----------------------------|.|

e|------------------------------------|
b|--/-8--5--5--x--x--/-7--9--9--x--x--|
g|------------------------------------|
d|------------------------------------|
a|------------------------------------|
e|------------------------------------|

Verse: Mostly just bass and drums. The guitar goes:

w/ talk box:

e|-------------|------------|-------------|
g|-------------|------------|-------------|
b|-------------|------------|-------------|
d|--9--9--9--9-|-9--9--9--9-|-9--9--9--9--|
a|--7--7--7--7-|-7--7--7--7-|-7--7--7--7--|
e|-------------|------------|-------------|
  PM____________________________________|

Chorus: (same as intro)

e|-----------------------------|.|
b|-----------------------------|.| Rapeat loadsa times
g|-----------------------------|.|
d|-----------------------7--9--|.|
a|--7--9--9--7--9--7--9--------|.|
e|-----------------------------|.|

e|------------------------------------|
b|--/-8--5--5--x--x--/-7--9--9--x--x--|
g|------------------------------------|
d|------------------------------------|
a|------------------------------------|
e|------------------------------------|

Solo:

Part 1- Just have a phaser kinda effect, and slide the length of the neck. Some pick 
and palm muting wouldn't hurt either.

e|----------------------------------|
b|----------------------------------|
g|--?---------\-------/-\-/------/--|
d|---?---?--?--?--?--?--?--?--?--?--|
a|--?--?--?--?--?--?--?--?--?--?--?-|
e|----------------------------------|

Part 2:

e|-------------------------------|  |---x--x--x--x--x-|
b|--/-12--10--12--10--12-/-(15)--|  |--x--x--x--x--x--|
g|-------------------------------|x3|-----------------|
d|-------------------------------|  |-----------------|
a|-------------------------------|  |-----------------|
e|-------------------------------|  |-----------------|

Part 3:

e|--12------12------12-h-(15)-p-12----------|
b|------15------15------------------15--12--|
g|------------------------------------------|
d|------------------------------------------|
a|------------------------------------------|
e|------------------------------------------|

Part 4:

e|---0-----0----0----0-----|

b|---12---11---10----9--/--|
g|--~~~--~~~~--~~---~~~----|
d|-------------------------|
a|-------------------------|
e|-------------------------|

Outro:

e|--------------------|-------------------|
b|--------------------|-------------------|
g|--9--9--9--9-/-(11)-|-9--9--9--9-/-(11)-|
d|--9--9--9--9-/-(11)-|-9--9--9--9-/-(11)-|
a|--7--7--7--7-/-(9)--|-7--7--7--7-/-(9)--|
e|--------------------|-------------------|
                 ALL!                HELL!

e|--------------------|--------------------|
b|--------------------|--------------------|
g|--9--9--9--9-/-(11)-|--x--x--x--x--x--x--|
d|--9--9--9--9-/-(11)-|--x--x--x--x--x--x--|
a|--7--7--7--7-/-(9)--|--x--x--x--x--x--x--|
e|--------------------|--------------------|
                          CAN'T STOP US NOW!

This tab is for those who don't care much for technicality. Everything in this tab
sounds right to me, but I dunno if it's note perfect, so please nobody comment if you
think it's not right cos I'm like one fret out or something, cos no-one really cares.



Important: The song above is NOT stored on the Chordie server. The original song is hosted at www.guitaretab.com. Chordie works as a search engine and provides on-the-fly formatting. Chordie does not index songs against artists/composers will. To remove this song please click here.

This song is displayed as text-only. Transposing and tuning is only available for chordpro-songs.

Login - add to songbook

Rating click stars to rate

Layout
Accuracy

SHARE PAGE  

You need to log in to post comments