Chordie logo


Scrapin The Resin   Raging Speedhorn



Scrapin the Resin by Raging Speedhorn
From the Album We will be dead tomorrow

Tuning Drop Db
(drop it a semitone flat all the across then drop d)

Awesome song, quite easy to learn - just gotta get those riffs right
so, time to turn up the volume and wake up the neighbours...

\  = slide
*  = let ring
b  = bend
br = bend and release
h  = hammer on
p  = pull off
x  = heavily muted note
PM = Palm Mute

I've written it for 2 guitars, but is perfectly possible to play with one -
Frank Regan did recently leave the band.

The beginning bit you hear is just feedback. Turn the volume and overdrive
up and stand next to your amp - you'll get the noise


Intro + Verse Riff

Eb---------------------------------------|
Bb---------------------------------------|
Gb---------------------------------------|
Db-----3-0-0-3-0-0-3-0-0-3-0-0-10-12-----|
Ab-----3-0-0-3-0-0-3-0-0-3-0-0-10-12-----|
Db-----3-0-0-3-0-0-3-0-0-3-0-0-10-12-----|

Guitar 1 plays x 4 then both guitars play during the verse


Chorus Riff (both guitars)

Eb---------------------------------------|
Bb---------------------------------------|
Gb---------------------------------------|
Db-----0-0*--10-10-10-10-0-10-12---------|
Ab-----0-0*--10-10-10-10-0-10-12---------|
Db-----0-0*--10-10-10-10-0-10-12---------|


Then verse riff again (both guitars)

Eb---------------------------------------|
Bb---------------------------------------|
Gb---------------------------------------|
Db-----3-0-0-3-0-0-3-0-0-3-0-0-10-12-----|
Ab-----3-0-0-3-0-0-3-0-0-3-0-0-10-12-----|
Db-----3-0-0-3-0-0-3-0-0-3-0-0-10-12-----|


Chorus riff again (both guitars)

Eb---------------------------------------|
Bb---------------------------------------|
Gb---------------------------------------|
Db-----0-0*--10-10-10-10-0-10-12---------|
Ab-----0-0*--10-10-10-10-0-10-12---------|
Db-----0-0*--10-10-10-10-0-10-12---------|

Bass interlude (bridge riff just played on the bottom string of a bass)

Bridge Riff


Guitar 1

Eb------------------------------------------------|
Bb------------------------------------------------|
Gb------------------------------------------------|
Db-----0-0-0-0-0-0-0-0-0-0--0-10-0-10-0-10-12-----|
Ab-----0-0-0-0-0-0-0-0-0-0--0-10-0-10-0-10-12-----|      x 3
Db-----0-0-0-0-0-0-0-0-0-0--0-10-0-10-0-10-12-----|


Guitar 1

Eb------------------------------------------------|
Bb------------------------------------------------|
Gb------------------------------------------------|
Db-----0-0-0-0-0-0-0-0-0-0--0-10-0-10-0-10-12-----|
Ab-----0-0-0-0-0-0-0-0-0-0--0-10-0-10-0-10-12-----|      x 1
Db-----0-0-0-0-0-0-0-0-0-0--0-10-0-10-0-10-12-----|

Guitar 2 plays

Eb------------------------------------------------|
Bb------------------------------------------------|
Gb------------------------------------------------|
Db------------------------------------------------|
Ab------------------------------------------------|
Db--------------------------xxxxxxxxxxxxxxxxxxxxx-|
                              Pick scratch!!!!!!


both guitars then play the bridge riff again

Eb------------------------------------------------|
Bb------------------------------------------------|
Gb------------------------------------------------|
Db-----0-0-0-0-0-0-0-0-0-0--0-10-0-10-0-10-12-----|
Ab-----0-0-0-0-0-0-0-0-0-0--0-10-0-10-0-10-12-----|
Db-----0-0-0-0-0-0-0-0-0-0--0-10-0-10-0-10-12-----|


Verse riff again (both guitars)

Eb---------------------------------------|
Bb---------------------------------------|
Gb---------------------------------------|
Db-----3-0-0-3-0-0-3-0-0-3-0-0-10-12-----|
Ab-----3-0-0-3-0-0-3-0-0-3-0-0-10-12-----|
Db-----3-0-0-3-0-0-3-0-0-3-0-0-10-12-----|

then

Eb--------------|
Bb--------------|
Gb--------------|
Db-----0***-----|
Ab-----0***-----|
Db-----0***-----|


Fill Riff 1 (Both guitars)

Eb----------------------------------------|
Bb----------------------------------------|
Gb----------------------------------------|
Db-----6-5-3--3-0-0-3-0-0-3-0-0-3-0-0-----|
Ab-----6-5-3--3-0-0-3-0-0-3-0-0-3-0-0-----|      played a bunch of times
Db-----6-5-3--3-0-0-3-0-0-3-0-0-3-0-0-----|

Then Fill Riff 2 (still both guitars)

Eb---------------------------------------------------------------------|
Bb---------------------------------------------------------------------|
Gb---------------------------------------------------------------------|
Db-----5-5-5-5-5-5-5-5-5-5-5-5-5-3-3-5-5-5-5-5-5-5-5-5-5-5-5-5-3-3-----|
Ab-----5-5-5-5-5-5-5-5-5-5-5-5-5-3-3-5-5-5-5-5-5-5-5-5-5-5-5-5-3-3-----|
Db-----5-5-5-5-5-5-5-5-5-5-5-5-5-3-3-5-5-5-5-5-5-5-5-5-5-5-5-5-3-3-----|

The repeat both fill riffs again


Then ends on

Vocals:
     "ne - ver - a - gain!!!
Eb--------------------------------|
Bb--------------------------------|
Gb--------------------------------|
Db-----6----5----3-----0****------|
Ab-----6----5----3-----0****------|
Db-----6----5----3-----0****------|

And that's the lot



Important: The song above is NOT stored on the Chordie server. The original song is hosted at www.guitaretab.com. Chordie works as a search engine and provides on-the-fly formatting. Chordie does not index songs against artists/composers will. To remove this song please click here.

This song is displayed as text-only. Transposing and tuning is only available for chordpro-songs.

Login - add to songbook

Rating click stars to rate

Layout
Accuracy

SHARE PAGE  




You need to log in to post comments