Chordie logo

Heirate Mich   Rammstein



Artist: Rammstein
Song: Heirate mich
Album: Herzeleid (1995)

Standard E

Main Riff:

E|-----------------------------------|--------------------------|
B|-----------------------------------|--------------------------|
G|-----------------------------------|--------------------------|
D|-----------------------------------|--------------------------|
A|--2-----2-----2-----2---5-4---4/5--|--2-----2-----2---2-------|
E|--0-0-0-0-0-0-0-0-0-0-0-3-2-0-2/3--|--0-0-0-0-0-0-0-0-0-------|
pm    . .   . .   . .   .     .           . .   . .   .


Pre-Chorus:

E|--------------------------------------------|
B|--------------------------------------------|
G|--------------------------------------------|
D|--------------------------------------------|
A|--9-----9-10-7/9-----9-10-7/9-----9-10-7/9--|
E|--7---7-7-8--5/7---7-7-8--5/7---7-7-8--5/7--| 
pm      .            .            .

E|------------------------------------------------------------|
B|------------------------------------------------------------|
G|------------------------------------------------------------|
D|------------------------------------------------------------|
A|--11---11-----11-----11---12-9/11---11-----11-----11---12---|
E|--9--9-9--9-9-9--9-9-9--9-10-7/9--9-9--9-9-9--9-9-9--9-10---|
pm     .    . .    . .    .         .    . .    . .    .

E|-----------------------------------------------------|
B|-----------------------------------------------------|
G|-----------------------------------------------------|
D|-----------------------------------------------------|
A|-9/11---11-----11-----11---12-9/10---10-----10-------|
E|-7/9--9-9--9-9-9--9-9-9--9-10-7/8--8-8--8-8-8--------|
pm      .    . .    . .    .         .    . .

Solo:

Richard (divided into parts to get it easier)
E|---------------------------------------------------|
B|---------------------------------------------------|
G|--4///(slow slide)9~~~--7~~-6~-6h7p6~~-------------|
D|---------------------------------------------------|
A|---------------------------------------------------|
E|---------------------------------------------------| 

E|--------------------------------------------|
B|--------------------------------------------|
G|--------------------------6h7p6-------------|
D|-7-----------------7h9p7---------9p7h9~-----|
A|---7-9-7-10-9-9-10--------------------------| 
E|--------------------------------------------| 
pm   . . . . . . . . 

E|----------9-9~~--12-11--9-----9~~~----|
B|--9--12p9------------------12---------|
G|--------------------------------------|
D|--------------------------------------|
A|--------------------------------------|
E|--------------------------------------| 

E|------------------------------------------|
B|------------------------------------------|
G|-----------13----13----13----13-----------|
D|--11-11-11----11----11----11----11--------|
A|------------------------------------------|
E|------------------------------------------| 
                                               let ring into the next chorus
E|---------------------------------------------|--------------------------|
B|---14-13-13h14-13----------------------------|--------------------------|
G|-------------------13h14-13-13h14-13--13/16~~|-16~~~~~~-----------------|
D|---------------------------------------------|--------------------------|
A|---------------------------------------------|--------------------------|
E|---------------------------------------------|--------------------------|


Paul (begins after the slide)
E|-----------------------------------|
B|-----------------------------------|

G|-----------------------------------|
D|-----------------------------------| x4
A|--9-----9-----9---9-----9---10-----|
E|--7-7-7-7-7-7-7-7-7-7-7-7-7-8--5-5-|
pm    . .   . .   .   . .   .    . .

E|--------------------------------------|
B|--------------------------------------|
G|--------------------------------------|
D|--------------------------------------| x4
A|--11----11----11--11----11--12--------|
E|--9-9-9-9-9-9-9-9-9-9-9-9-9-10-7-7----|
pm    . .   . .   .   . .   .    . . 


p -> pull-off
h -> hammer-on
/ -> slide

have fun ;)


Important: The song above is NOT stored on the Chordie server. The original song is hosted at www.guitaretab.com. Chordie works as a search engine and provides on-the-fly formatting. Chordie does not index songs against artists/composers will. To remove this song please click here.

This song is displayed as text-only. Transposing and tuning is only available for chordpro-songs.

Login - add to songbook

Rating click stars to rate

Layout
Accuracy

SHARE PAGE  



You need to log in to post comments