Guitar Tabs, Chords and Lyrics


Reise Reise   Rammstein



Rammstein-Reise, Reise (Arise, Arise)

Drop C


Intro (basically the whole song) heavy distortion

--------------------------|
--------------------------|
--------------------------|
--------------------------|
-1--4--8--6--1--1--11-0---|
-1--4--8--6--1--1--11-0---| 2X

--------------------------|
--------------------------|
--------------------------|
--------------------------|
-1-0-1--1-0--1-0-1--1-1-0-|
-1-0-1--1-0--1-0-1--1-1-0-| 4X

(accordion plays verses)

--------------------------|
--------------------------|
--------------------------|
--------------------------|
-1------------4-----------|
-1------------4-----------|
 REISE, REISE SEEMANN REISE
 ARISE, ARISE SEAMAN  ARISE
---------------------------|
---------------------------|
---------------------------|
---------------------------|
-8---------------6---------|
-8---------------6---------|
 JEDER TUT'S AUF SEINE WEISE
 EACH DOES IT IN HIS OWN WAY
---------------------------|
---------------------------|
---------------------------|
---------------------------|
-1-------------------------|
-1-------------------------|
 DER EINE STOSST DEN SPEER ZUM MANN
 ONE THRUSTS A SPEER INTO A MAN
---------------------------|
---------------------------|
---------------------------|
---------------------------|
-11------------------------|
-11------------------------|
 DER ANDERE ZUM FISCHE DUNN
 ANOTHER THEN INTO A FISH
---------------------------|
---------------------------|
---------------------------|
---------------------------|
-1-------------4-----------|
-1-------------4-----------|
 REISE, REISE, SEEMANN REISE
 ARISE, ARISE, SEAMAN, ARISE
---------------------------|
---------------------------|
---------------------------|
---------------------------|
-8----------------6--------|
-8----------------6--------|
   UND DIE WELLEN WEISE LEISE
   AND THE WAVES  CRY   SOFTLY
---------------------------|
---------------------------|
---------------------------|
---------------------------|
-1-------------------------|
-1-------------------------|
 IN IHREM BLUTE STECKT EIN SPEER
 IN THEIR BLOOD A SPEER IS LODGED
---------------------------|
---------------------------|
---------------------------|
---------------------------|
-11------------------------|
-11------------------------|
 BLUTEN LEISE IN DAS MEER
 THEY BLEED SOFTLY INTO THE OCEAN
---------------------------|
---------------------------|
---------------------------|
---------------------------|
-1-0-1--1-0--1-0-1--1-1-0--|
-1-0-1--1-0--1-0-1--1-1-0--| 4X

(accordion plays verses)

---------------------------|
---------------------------|
---------------------------|
---------------------------|
-1-------------4-----------|
-1-------------4-----------|
 REISE, REISE, SEEMANN REISE
 ARISE, ARISE, SEAMAN, ARISE
---------------------------|
---------------------------|
---------------------------|
---------------------------|
-8---------------6---------|
-8---------------6---------|
 JEDER TUT'S AUF SEINE WEISE
 EACH DOES IT IN HIS OWN WAY
---------------------------|
---------------------------|
---------------------------|
---------------------------|
-1-------------------------|
-1-------------------------|
 DER EINE STOSST DEN SPEER ZUM MANN
 ONE THRUSTS A SPEER INTO A MAN
---------------------------|
---------------------------|
---------------------------|
---------------------------|
-11------------------------|
-11------------------------|
 DER ANDERE ZUM FISCHE DUNN
 ANOTHER THEN INTO A FISH
---------------------------|
---------------------------|
---------------------------|
---------------------------|
-1-------------4-----------|
-1-------------4-----------|
 REISE, REISE, SEEMANN REISE
 ARISE, ARISE, SEAMAN, ARISE
---------------------------|
---------------------------|
---------------------------|
---------------------------|
-8----------------6--------|
-8----------------6--------|
   UND DIE WELLEN WEISE LEISE
   AND THE WAVES  CRY   SOFTLY
---------------------------|
---------------------------|
---------------------------|
---------------------------|
-1-------------------------|
-1-------------------------|
 IN IHREM BLUTE STECKT EIN SPEER
 IN THEIR BLOOD A SPEER IS LODGED
----------------------------|
----------------------------|
----------------------------|
----------------------------|
-11-----------------------1-|
-11-----------------------1-|
 BLUTEN LEISE IN DAS MEER
 THEY BLEED SOFTLY INTO THE OCEAN

(PLAY CHORUS TWICE FOR ACCORDION SOLO)

---------------------------|
---------------------------|
---------------------------|
---------------------------|
-1-------------4-----------|
-1-------------4-----------|
 REISE, REISE, SEEMANN REISE
 ARISE, ARISE, SEAMAN, ARISE
---------------------------|
---------------------------|
---------------------------|
---------------------------|
-8----------------6--------|
-8----------------6--------|
   UND DIE WELLEN WEISE LEISE
   AND THE WAVES  CRY   SOFTLY
---------------------------|
---------------------------|
---------------------------|
---------------------------|
-1-------------------------|
-1-------------------------|
 IN IHREM HERZEN STECKT EIN SPEER
 IN THEIR HEARTS A SPEER IS LODGED
---------------------------|
---------------------------|
---------------------------|
---------------------------|
-11------------------------|
-11------------------------|
 BLUTEN SICH AM UFER LEER
 THEY BLEED THEMSELVES DRY ON THE SHORE
--------------------------|
--------------------------|
--------------------------|
--------------------------|
-1------------4-----------|
-1------------4-----------|

---------------------------|
---------------------------|
---------------------------|
---------------------------|
-8---------------6---------|
-8---------------6---------|

-----------------------------|
-----------------------------|
-----------------------------|
-----------------------------|
-1------------------------11-|
-1------------------------11-|
   BLUTEN SICH AM UFER LEER
   THEY BLEED THEMSELVES DRY ON THE SHORE

---
---
---
---
-1-


Important: The song above is NOT stored on the Chordie server. The original song is hosted at www.guitaretab.com. Chordie works as a search engine and provides on-the-fly formatting. Chordie does not index songs against artists/composers will. To remove this song please click here.

This song is displayed as text-only. Transposing and tuning is only available for chordpro-songs.

Login - add to songbook

Rating click stars to rate

Layout
Accuracy

SHARE PAGE  




You need to log in to post comments