Guitar Tabs, Chords and Lyrics


Questioningly  Ramones

QUESTIONINGLY
=============
INTRO (Play 2 times)
|-------------------------------------------------|-------------------
|---7-----------12-----------15-----------14------|------7b9b7--------
|---7-----------12-----------16b19--------14------|------7b9b7--------
|-------------------------------------------------|-------------------
|-------------------------------------------------|-------------------
|-------------------------------------------------|-------------------

     [D]Questioningly her [G]eyes looked at me
[D]And then she spoke
[D]Aren't you someone I [G]used to Know
And [Bm]weren't we lovers a [A]long time ago ?
   [D]Looked at her close
[G]Forced her into view
[D]Yes, I said, you're a girl
That [G]I [Bm]once may have [A]knew
But [G]I don't love you [D]anymore
[G]Why do you want to [D]talk to me for ?
[G]You should have just let [D]me walk by
[G]Memories [Bm]make us [A]cry[D]
In the morning, [G]I'm at work at time
[D]My boss he tells me that [G]I'm [Bm]doing [A]fine
[G]When I'm going [D]home
[G]Whiskey bottle [D]movie on T.V
[G]Memories [D]make me cry
And [G]I'm alone just[Bm] me
Just [A]me, Questioningl[D]y ...
SOLO
|---------------------------------------------------------------------
|---\7-----------12-----------15------------------14-----------7b9b7--
|---\7-----------12-----------16b19--16b19b16-----14-----------7b9b7--
|---------------------------------------------------------------------
|---------------------------------------------------------------------
|---------------------------------------------------------------------
----------------------------------------------------------------------
---12-----------15--------17------------------------------------------
---12-----------16b19-----18b21---------------------------------------
----------------------------------------------------------------------
----------------------------------------------------------------------
----------------------------------------------------------------------

Additional lyrics :
But I dont love you anymore
Why do you want to talk to me for ?
You should have just let me walk by
Memories make us cry
Looked at her close
Forced into view
Yes, I said you're a girl
That I once may have knew
Questioningly her eyes looked at me
And then she spoke
Aren't you someone I used to know
And weren't we lovers a long time ago ?
----- END.
Corrections & Suggestions wellcome (please let us know e-mailing us)
or if you like Ramones and have anything to say about that, e-mail
us (O&D) at this e-mail address :
Oscar.Rodriguez@ii.uam.es
GABBA GABBA HEY ;)

Important: The song above is NOT stored on the Chordie server. The original song is hosted at www.guitaretab.com. Chordie works as a search engine and provides on-the-fly formatting. Chordie does not index songs against artists'/composers' will. To remove this song please click here.

Text color:
Chord color:
Chord grids: 
Font size:    
Page size: 

A Bm D G
variations - click chord images

Login - add to songbook

Transpose chords

Tuning

Rating click stars to rate

Layout
Accuracy

SHARE PAGE  




You need to log in to post comments